S Sasha

There She Goes tab

Sasha

tools Ultimate Tabs

Start AutoScroll Font Size Down Font Size Up

Find us on Facebook

chords
tabs
bass
ukulele
keyboards
drums
flute
harmonica
guitar pro
video
Ultimate-Tabs

There She Goes

Intro:  x 2


e|--6-6-9-9-6--------6-6-------------------------------------------------|
H|------------9-9--9-----9--6-6-6-9-9-6----------------------------------|
G|--------------------------------------6-66-8-8-6----------------------|
D|-----------------------------------------------------------------------|
A|-----------------------------------------------------------------------|
E|-----------------------------------------------------------------------|


Strophe 1:
D#               G#
  An ordinary day, like any other day 
C#                    F#
  It's not my birthday, I'll take it anyway 
D#               G#                       C#                F#
  A quite common scene, the daily routine Seems to strike again
    D#                  G#
But then, showing up to turn the tide 
     C#                  F#
She comes in sight, to prove me a liar 
      D#                       G#                 A#
She's ringing my bell, turning everything else to black and white


Refrain:
D#        G#    C#           F#
There she goes, far away, so close 
D#        G#         A#
There she goes, like uhuhlala, uhuhlala 
D#        G#           C#             F#
There she goes, like a miracle on the road 
             D#    G# G# --------------
And god only knows,      where she goes


Intro  x 1


Strophe 2:
D#                   G#
 She's like a stereo best case scenario 
    C#             F#
And if I'd shoot a film, she'd get a cameo 
D#                G#
 My heart skips a beat and while it does 
      C#                 F#
She's rushing by, like a natural high 
D#                     G#
No, no, no, there's no need for speeding 
C#                          F#
Slow, slow, slow, please my heart keep beating 
    D#                     G#
The whole street's yelling hale
                    A#
to the queen of the day



Refrain:

D#        G#    C#           F#
There she goes, far away, so close 
D#        G#         A#
There she goes, like uhuhlala, uhuhlala 
D#        G#           C#             F#
There she goes, like a miracle on the road 
             D#    G# G# --------------
And god only knows,      where she goes



Instrumental:

e|--6-6-9-9-6--------6-6-------------------------------------------------|
H|------------9-9--9-----9--6-6-6-9-9-6----------------------------------|
G|--------------------------------------6-66-8-8-6----------------------|
D|-----------------------------------------------------------------------|
A|-----------------------------------------------------------------------|
E|-----------------------------------------------------------------------|

e|--6-6-9-9-6--------6-6------6-6---6-6-10-6------6-10-6-13--------------|
H|------------9-9--9-----9--------6-----------6--------------------------|
G|-----------------------------------------------------------------------|
D|-----------------------------------------------------------------------|
A|-----------------------------------------------------------------------|
E|-----------------------------------------------------------------------|



Refrain:

D#        G#    C#           F#
There she goes, far away, so close 
D#        G#         A#
There she goes, like uhuhlala, uhuhlala 
D#        G#           C#             F#
There she goes, like a miracle on the road
             D#    G#            D#   G#
And god only knows, god only knows 
         D#   G# G# --------------
God only knows,     where she goes
less
plus
Add to Songbook Print Version How to play lesson Submit videolesson
Click the best TAGS for this song:
None of them
Contributor: zonushea Correct

If you can not find the chords or tabs you want, look at our partner E-chords. If you are a premium member, you have total access to our video lessons.

If you find a wrong Bad To Me from Sasha, click the correct button above.

login/signup
my songbooks
my recent views
my submits