Simple Plan

Whats New Scooby Doo? bass

Simple Plan

tools Ultimate Tabs

Start AutoScroll Font Size Down Font Size Up

Find us on Facebook

chords tabs
bass
ukulele keyboards
drums
flute
harmonica
guitar pro video
Ultimate-Tabs

Whats New Scooby Doo?

-----------------------------------------------------
      Whats New Scooby Doo    Simple Plan
-----------------------------------------------------

Tabbed By : FOB_ROCK
e-mail: [email protected]

Main Riff

G|---------------------------------------------------|
D|---------------------------------------------------|
A|-------------------------------4-4-4-4-4-4-4-4-6-6-|
E|-2-2-2-2-2-2-2-2-4-4-4-4-4-4-4---------------------|

G|-----------------------------------------------------|
D|-----------------------------------------------------|
A|-6-6-6-6-6-6--------------------------------4-4-4-4--|
E|-------------2-2-2-2-2-2-2-2-4-4-4-4-4-4-4-----------|

G|---------------------------------------------------|
D|---------------------------------------------------|
A|-4-4-4-4-------------------------------------------|
E|---------------------------------------------------|


Interlude: Dont Look Back You May Find Another Clue...

G|----------------------------------------------------|
D|----------------------------------------------------|
A|-------------------------4-4-4-4--------------------|
E|-4-4-4-4-4-4-4-4-2-2-2-2------------------Repeat----| x2


| /  slide up
| \  slide down
| h  hammer-on
| p  pull-off
| ~  vibrato
| +  harmonic
| x  Mute note
=====================================================
less
plus
Add to Songbook Print Version How to play lesson Submit videolesson
Click the best TAGS for this song:
None of them
Contributor: andrckcj Correct

If you can not find the chords or tabs you want, look at our partner E-chords. If you are a premium member, you have total access to our video lessons.

If you find a wrong Bad To Me from Simple Plan, click the correct button above.

login/signup
my songbooks
my recent views
my submits