S Sin Bandera

Eres Sirena tab

Sin Bandera

tools Ultimate Tabs

Start AutoScroll Font Size Down Font Size Up

Find us on Facebook

chords
tabs
bass
ukulele
keyboards
drums
flute
harmonica
guitar pro
video
Ultimate-Tabs

Eres Sirena

Intro  
 
G|-----------|-----------| 
D|-----------|-----------| 
A|---4-------|---5-------| 
E|-------5-7-|-5-----5-7-| 
 
Verso 1 
 
G|-----------|-----------|-----------|----------| 
D|-----------|-----------|-----------|----------| 
A|---4-------|---5-------|---4-------|----------| 
E|-------5-7-|-5-----5-7-|-------5-7-|-0----7-5-| 
 
      (1)          (2)        (3)         (4) 
 
      (1)      (2)   
Me duele en el fondo de mi corazón  
      (3)        (4) 
la herida no ha cerrado todavía 
(1)                   (2)  
no hay forma en que pueda olvidarte yo  
(3)       (4)     
lo siento te has llevado mi vida 
 
 
Pre-coro 
 
G|--------------|--------------|----------|------------| 
D|--------------|--------------|----------|------------| 
A|------4-------|------5-------|-7--------|---7--------| 
E|-5-5-----5-7--|-5-5------5-7-|------7-7-|------7-7-5-| 
 
       (5)           (6)          (7)          (8) 
 
 
 
 
 
                    (5) 
Siempre intento olvidarte 
                    (6) 
y te vuelvo a encontrar 
                   (5)                (7) 
siempre en cada rincón de debajo del mar 
                   (5) 
si me voy del planeta 
               (6) 
eres estrella fugaz 
                    (5) 
si en la noche yo duermo  
                    (8) 
en mis sueños tú estás 
 
 
 
 
Coro 
 
G|-------------------|---------------------------|------------| 
D|-------------------|---------------------------|------------| 
A|----------4-7-5-5-5|-5-7-5-----------4-7-5-5-5-|-7-7--------| 
E|-5-5-5--5----------|--------5-5-5--5-----------|-----7-7--5-| 
 
 
  
 
Eres sirena, oigo tu canto  
 
y me ahogo en tu cadera  
 
porque tú vuelas yo daría lo que fuera  
 
porque me quite con tu piel esta condena 
 
que me mata y me envenena 
 
Mira morena, baila conmigo  
 
y me sacas esta pena 
 
porque no hay cosa para mí  
que sea tan buena como tus labios 
 
en mis labios, vuelve a casa te lo ruego  
 
Ves nena 
(1)       (2) 
Eres el mar... 
(1)       (2) 
Eres el mar  
 
Hay un parte de percusión donde se toca esto: 
 
G|-------------| 
D|-------------| 
A|-------------| 
E|--5---5--5-5-| 
 
Y luego se repite todo...  
less
plus
Add to Songbook Print Version How to play lesson Submit videolesson
Click the best TAGS for this song:
None of them
Contributor: dreaLady Correct

If you can not find the chords or tabs you want, look at our partner E-chords. If you are a premium member, you have total access to our video lessons.

If you find a wrong Bad To Me from Sin Bandera, click the correct button above.

login/signup
my songbooks
my recent views
my submits