S Sly and the family stone

If This Room Could Talk bass

Sly and the family stone

tools Ultimate Tabs

Start AutoScroll Font Size Down Font Size Up

Find us on Facebook

chords
tabs
bass
ukulele
keyboards
drums
flute
harmonica
guitar pro
video
Ultimate-Tabs

If This Room Could Talk

-------------------------------------------------------------------------------
                IF THIS ROOM COULD TALK - Sly and the Family Stone
-------------------------------------------------------------------------------
Tabbed by: Andrew McDaniel
E-mail: [email protected]

Tuning: Standard (EADG)

Intro (bass comes in at 0:04)
G|-------------------|
D|o-^---------------o|
A|o-3-3-3-3-3-3-3-3-o|(x4)
E|--.-.-.-.-.-.-.-.--|
    + 1 + 2 + 3 + 4       
Verse                          
G|-------------------|    |----------------------------------|
D|o-^---------------o|    |--^-------------------------------|
A|o-3-3-3-3-3-3-3-3-o|(x7)|--3-------------------------------|
E|--.-.-.-.-.-.-.-.--|    |--.-------------------------------|
    + 1 + 2 + 3 + 4          + 1 + 2 + 3 + 4 + 1 + 2 + 3 + 4

Intro
Verse

Bridge
G|-------------------|    |--------------------|
D|o-^---------------o|    |--^-----------------|
A|o-3-3-3-3-3-3-3-3-o|(x3)|--3-3-3-3-3-3--5--6-|
E|--.-.-.-.-.-.-.-.--|    |--.-.-.-.-.---------|
    + 1 + 2 + 3 + 4          + 1 + 2 + 3 + 4 +

Chorus     .               .
G|---------9-9-------------9-9-------------.---------------.---------------7-7---.---------.-------|
D|--------9-x----9--------9-x----9---------7-7-------------7-7------------7-x----7---------5-5-----|
A|-7---7----------/7---7------------------7-x----7--------7-x----7-5---5------------------5-x----5-|
E|---------------------------------5---5-----------5---5---------------------------3---3-----------|
   1 + 2 + 3 + 4 + 1 + 2 + 3 + 4 + 1 + 2 + 3 + 4 + 1 + 2 + 3 + 4 + 1 + 2 + 3 + 4 + 1 + 2 + 3 + 4 +  

G|---------5----------|    |--------5-------|
D|o--------------2---o|    |----------------|
A|o------3---3-------o|(x7)|------3---3-----|
E|--1-/5--------0--0--|    |-1-/5-------0-3-|
    1  + 2 + 3 + 4 +         1  + 2 + 3 + 4 

Intro
Verse
Bridge

Chorus
G|---------9-9-------------9-9-------------.-----------------6-------------7-7---.---------.-------|
D|--------9-x----9--------9-x----9---------7-7-------------7---7----------7-x----7---------5-5---.-|
A|-7---7-----------7---7------------------7-x----7--------7------7-5---5------------------5-x----5-|
E|---------------------------------5---5-----------5---5---------------------------3---3-----------|
   1 + 2 + 3 + 4 + 1 + 2 + 3 + 4 + 1 + 2 + 3 + 4 + 1 + 2 + 3 + 4 + 1 + 2 + 3 + 4 + 1 + 2 + 3 + 4 +  

G|---------5----------|    |--------5-------|
D|o--------------2---o|    |----------------|
A|o------3---3-------o|(x7)|------3---3-----|
E|--1-/5--------0--0--|    |-1-/5-------0-3-|
    1  + 2 + 3 + 4 +         1  + 2 + 3 + 4 

Outro
G|-------------------|     |---|
D|o-^---------------o|     |-^-|
A|o-3-3-3-3-3-3-3-3-o|(x11)|-3-|
E|--.-.-.-.-.-.-.-.--|     |-.-|
    + 1 + 2 + 3 + 4          +


| ^  accent
| .  staccato
| x  ghost
| /  slide in
===============================================================================
less
plus
Add to Songbook Print Version How to play lesson Submit videolesson
Click the best TAGS for this song:
None of them
Contributor: colikfar Correct

If you can not find the chords or tabs you want, look at our partner E-chords. If you are a premium member, you have total access to our video lessons.

If you find a wrong Bad To Me from Sly and the family stone, click the correct button above.

login/signup
my songbooks
my recent views
my submits