tools Ultimate Tabs

Start AutoScroll Font Size Down Font Size Up

Find us on Facebook

chords
tabs
bass
ukulele
keyboards
drums
flute
harmonica
guitar pro
video
Ultimate-Tabs

Home

#----------------------------------PLEASE NOTE--------------------------------#
#This file is the author's own work and represents their interpretation of the#
#song. You may only use this file for private study, scholarship, or research.#
#-----------------------------------------------------------------------------#

BAND: Smash Mouth
TITLE: Home
ALBUM: Astro Lounge
TABBED BY: [email protected]

Intro

Gb|---------------------------------|---------------------------------|
Db|---------------------0h2-2-2-2---|---------------------------------|
Ab|---------------------------------|---------------------------------|
Eb|-3---5-------------------------0-|-3---5-------------------------x-|
    1 e & a 2 e & a 3 e & a 4 e & a   1 e & a 2 e & a 3 e & a 4 e & a

Gb|---------------------------------|---------------------------------|
Db|---------------------0h2-2-2-2---|---------------------------------|
Ab|---------------------------------|---------------------------------|
Eb|-3---5-------------------------0-|-3---5-------------------------0-|
    1 e & a 2 e & a 3 e & a 4 e & a   1 e & a 2 e & a 3 e & a 4 e & a

Verse 1

   "I am at my front door..."
Gb|---------------------------------|---------------------------------|
Db|---------------------0h2-2-2-2---|---------------------------------|
Ab|---------------------------------|---------------------------------|
Eb|-3---5-------------------------0-|-3---5-------------------------0-|
    1 e & a 2 e & a 3 e & a 4 e & a   1 e & a 2 e & a 3 e & a 4 e & a

Gb|---------------------------------|---------------------------------|
Db|---------------------0h2-2-2-2---|---------------------------------|
Ab|---------------------------------|---------------------------------|
Eb|-3---5-------------------------0-|-3---5-------------------------0-|
    1 e & a 2 e & a 3 e & a 4 e & a   1 e & a 2 e & a 3 e & a 4 e & a

Gb|---------------------------------|---------------------------------|
Db|---------------------0h2-2-2-2---|---------------------------------|
Ab|---------------------------------|---------------------------------|
Eb|-3---5-------------------------0-|-3---5-------------------------0-|
    1 e & a 2 e & a 3 e & a 4 e & a   1 e & a 2 e & a 3 e & a 4 e & a

Gb|---------------------------------|---------------------------------|
Db|---------------------0h2-2-2-2---|---------------------------------|
Ab|---------------------------------|---------------------------0-3---|
Eb|-3---5-------------------------0-|-3---5---------------------------|
    1 e & a 2 e & a 3 e & a 4 e & a   1 e & a 2 e & a 3 e & a 4 e & a

Pre-Chorus

   "Home..."
Gb|---------------------------------|---------------------------------|
Db|---------------------------------|---------------------------------|
Ab|-5---------------3---------------|-2---------------1---------------|
Eb|---------------------------------|---------------------------------|
    1 e & a 2 e & a 3 e & a 4 e & a   1 e & a 2 e & a 3 e & a 4 e & a

   "What do you do..."
Gb|---------------------------------|---------------------------------|
Db|---------------------0h2-2-2-2---|---------------------------------|
Ab|---------------------------------|---------------------------------|
Eb|-3---5-------------------------0-|-3---5-------------------------0-|
    1 e & a 2 e & a 3 e & a 4 e & a   1 e & a 2 e & a 3 e & a 4 e & a

Gb|---------------------------------|---------------------------------|
Db|---------------------0h2-2-2-2---|---------------------------------|
Ab|---------------------------------|---------------------------------|
Eb|-3---5-------------------------0-|-3---5-------------------------0-|
    1 e & a 2 e & a 3 e & a 4 e & a   1 e & a 2 e & a 3 e & a 4 e & a

   "Lottery or poverty..."
Gb|---------------------------------|---------------------------------|
Db|---------------------0h2-2-2-2---|---------------------------------|
Ab|---------------------------------|---------------------------------|
Eb|-3---5-------------------------0-|-3---5-------------------------0-|
    1 e & a 2 e & a 3 e & a 4 e & a   1 e & a 2 e & a 3 e & a 4 e & a

Gb|---------------------------------|---------------------------------|
Db|---------------------0h2-2-2-2---|---------------------------------|
Ab|---------------------------------|---------------------------0-3---|
Eb|-3---5-------------------------0-|-3---5---------------------------|
    1 e & a 2 e & a 3 e & a 4 e & a   1 e & a 2 e & a 3 e & a 4 e & a

Chorus

   "Home..."
Gb|---------------------------------|---------------------------------|
Db|---------------------------------|---------------------------------|
Ab|-5---------------3---------------|-2---------------1---------------|
Eb|---------------------------------|---------------------------------|
    1 e & a 2 e & a 3 e & a 4 e & a   1 e & a 2 e & a 3 e & a 4 e & a

Gb|---------------------------------|---------------------------------|
Db|---------------------------------|---------------------------------|
Ab|---------------------------------|---------------------------------|
Eb|-4-------8--/12--8--/11\-8--/11\-|-3-------5--/8---8--/13\-8--/13\-|
    1 e & a 2 e & a 3 e & a 4 e & a   1 e & a 2 e & a 3 e & a 4 e & a

Gb|---------------------------------|---------------------------------|
Db|---------------------------------|---------------------------------|
Ab|---------------------------------|---------------------------------|
Eb|-4-------8--/12--8--/11\-8--/11\-|-3-------5--/8---8--/13\---------|
    1 e & a 2 e & a 3 e & a 4 e & a   1 e & a 2 e & a 3 e & a 4 e & a

Verse 2

   "Sitting in the same spot..."
Gb|---------------------------------|---------------------------------|
Db|---------------------0h2-2-2-2---|---------------------------------|
Ab|---------------------------------|---------------------------------|
Eb|-3---5-------------------------0-|-3---5-------------------------0-|
    1 e & a 2 e & a 3 e & a 4 e & a   1 e & a 2 e & a 3 e & a 4 e & a

Gb|---------------------------------|---------------------------------|
Db|---------------------0h2-2-2-2---|---------------------------------|
Ab|---------------------------------|---------------------------------|
Eb|-3---5-------------------------0-|-3---5-------------------------0-|
    1 e & a 2 e & a 3 e & a 4 e & a   1 e & a 2 e & a 3 e & a 4 e & a

Gb|---------------------------------|---------------------------------|
Db|---------------------0h2-2-2-2---|---------------------------------|
Ab|---------------------------------|---------------------------------|
Eb|-3---5-------------------------0-|-3---5-------------------------0-|
    1 e & a 2 e & a 3 e & a 4 e & a   1 e & a 2 e & a 3 e & a 4 e & a

Gb|---------------------------------|---------------------------------|
Db|---------------------0h2-2-2-2---|---------------------------------|
Ab|---------------------------------|---------------------------0-3---|
Eb|-3---5-------------------------0-|-3---5---------------------------|
    1 e & a 2 e & a 3 e & a 4 e & a   1 e & a 2 e & a 3 e & a 4 e & a

Pre-Chorus

   "What'cha gonna do..."
Gb|---------------------------------|---------------------------------|
Db|---------------------0h2-2-2-2---|---------------------------------|
Ab|---------------------------------|---------------------------------|
Eb|-3---5-------------------------0-|-3---5-------------------------0-|
    1 e & a 2 e & a 3 e & a 4 e & a   1 e & a 2 e & a 3 e & a 4 e & a

Gb|---------------------------------|---------------------------------|
Db|---------------------0h2-2-2-2---|---------------------------------|
Ab|---------------------------------|---------------------------------|
Eb|-3---5-------------------------0-|-3---5-------------------------0-|
    1 e & a 2 e & a 3 e & a 4 e & a   1 e & a 2 e & a 3 e & a 4 e & a

Chorus

   "Home..."
Gb|---------------------------------|---------------------------------|
Db|---------------------------------|---------------------------------|
Ab|-5---------------3---------------|-2---------------1---------------|
Eb|---------------------------------|---------------------------------|
    1 e & a 2 e & a 3 e & a 4 e & a   1 e & a 2 e & a 3 e & a 4 e & a

Gb|---------------------------------|---------------------------------|
Db|---------------------------------|---------------------------------|
Ab|---------------------------------|---------------------------------|
Eb|-4-----8----/12--8--/11\-8--/11\-|-3-----5----/8---8--/13\-8--/13\-|
    1 e & a 2 e & a 3 e & a 4 e & a   1 e & a 2 e & a 3 e & a 4 e & a

Gb|---------------------------------|---------------------------------|
Db|---------------------------------|---------------------------------|
Ab|---------------------------------|---------------------------------|
Eb|-4-----8----/12--8--/11\-8--/11\-|-3-----5\------------------------|
    1 e & a 2 e & a 3 e & a 4 e & a   1 e & a 2 e & a 3 e & a 4 e & a

Bridge

Gb|---------------------------------|---------------------------------|
Db|---------------------0h2-2-2-2---|---------------------5h7-7-7-7\--|
Ab|---------------------------------|---------------------------------|
Eb|-3---5-------------------------0-|-3---5---------------------------|
    1 e & a 2 e & a 3 e & a 4 e & a   1 e & a 2 e & a 3 e & a 4 e & a

Gb|---------------------------------|---------------------------------|
Db|---------------------0h2-2-2-2---|---------------------5h7-7-7-7\--|
Ab|---------------------------------|---------------------------------|
Eb|-3---5-------------------------0-|-3---5---------------------------|
    1 e & a 2 e & a 3 e & a 4 e & a   1 e & a 2 e & a 3 e & a 4 e & a

Chorus

   "Home..."
Gb|---------------------------------|---------------------------------|
Db|---------------------------------|---------------------------------|
Ab|-5---------------3---------------|-2---------------1---------------|
Eb|---------------------------------|---------------------------------|
    1 e & a 2 e & a 3 e & a 4 e & a   1 e & a 2 e & a 3 e & a 4 e & a

Gb|---------------------------------|---------------------------------|
Db|---------------------------------|---------------------------------|
Ab|---------------------------------|---------------------------------|
Eb|-4-----8----/12--8--/11\-8--/11\-|-3-------5--/8---8--/13\-8--/13\-|
    1 e & a 2 e & a 3 e & a 4 e & a   1 e & a 2 e & a 3 e & a 4 e & a

Gb|---------------------------------|---------------------------------|
Db|---------------------------------|---------------------------------|
Ab|---------------------------------|------------/10--11--------------|
Eb|-4-----8----/12--8--/11\-8--/11\-|-3-------5-----------10--11\-----|
    1 e & a 2 e & a 3 e & a 4 e & a   1 e & a 2 e & a 3 e & a 4 e & a

Outro

Gb|---------------------------------|---------------------------------|
Db|---------------------0h2-2-2-2---|---------------------------------|
Ab|---------------------------------|---------------------------------|
Eb|-3---5-------------------------0-|-3---5---------------------0-0-0-|
    1 e & a 2 e & a 3 e & a 4 e & a   1 e & a 2 e & a 3 e & a 4 e & a

Gb|---------------------------------|---------------------------------|
Db|---------------------0h2-2-2-2---|---------------------------------|
Ab|---------------------------------|---------------------------------|
Eb|-3---5-------------------------0-|-3---5-------------------------0-|
    1 e & a 2 e & a 3 e & a 4 e & a   1 e & a 2 e & a 3 e & a 4 e & a

Gb|---------------------------------|---------------------------------|
Db|---------------------0h2-2-2-2---|---------------------------------|
Ab|---------------------------------|---------------------------------|
Eb|-3---5-------------------------0-|-3---5-------------------------0-|
    1 e & a 2 e & a 3 e & a 4 e & a   1 e & a 2 e & a 3 e & a 4 e & a

Gb|---------------------------------|---------------------------------|
Db|---------------------0h2-2-2-2---|---------------------------------|
Ab|---------------------------------|---------------------------------|
Eb|-3---5-------------------------0-|-3---5---------------------------|
    1 e & a 2 e & a 3 e & a 4 e & a   1 e & a 2 e & a 3 e & a 4 e & a

***********************************

| h   Hammer-on
| /   Slide-up
| \   Slide-down

***********************************
less
plus
Add to Songbook Print Version How to play lesson Submit videolesson
Click the best TAGS for this song:
None of them
Contributor: Anonymous Correct

If you can not find the chords or tabs you want, look at our partner E-chords. If you are a premium member, you have total access to our video lessons.

If you find a wrong Bad To Me from Smash Mouth, click the correct button above.

login/signup
my songbooks
my recent views
my submits