Smash Mouth

I'm a believer bass

Smash Mouth

Album:All Star Smash Hits

Year:2005

tools Ultimate Tabs

Start AutoScroll Font Size Down Font Size Up

Find us on Facebook

chords
tabs
bass
ukulele keyboards
drums
flute
harmonica
guitar pro
video
Ultimate-Tabs

I'm a believer

Smash Mouth -> Im a believer {baixo eletrico} 
 
Intro 
G|-0-0---0---------0-0---------- 
D|-----0---0-0-3-3-----0-0-----0- 
A|------------------------------- x2 
E|-------------------------3-3-- 
 
Pre-Refrao 
G|------------0----- 
D|--------0-2---2--- 
A|-3----------------  x2 
E|------3----------- 
 
G|------------- 
D|-----------0- x1 
A|-3----------- 
E|------3------ 
 
Refrao 
G|---------  x9 
D|--------- 
A|-----3-3- 
E|-3-3----- 
 
Leadoff(tocado pela guitarra somente, mas fica legal se tocada com o baixo) 
G|-------10----10-------10-------10-- 
D|-10-12----10----10-12----10-12-----    
A|----------------------------------- 
E|----------------------------------- 
 
 
By -> Markcio 
 
less
plus
Add to Songbook Print Version How to play lesson Submit videolesson
Click the best TAGS for this song:
None of them
Contributor: lordguyh Correct

If you can not find the chords or tabs you want, look at our partner E-chords. If you are a premium member, you have total access to our video lessons.

If you find a wrong Bad To Me from Smash Mouth, click the correct button above.

login/signup
my songbooks
my recent views
my submits