tools Ultimate Tabs

Start AutoScroll Font Size Down Font Size Up

Find us on Facebook

chords
tabs
bass
ukulele keyboards
drums
flute
harmonica
guitar pro
video
Ultimate-Tabs

a place in the sun

A Place In The Sun
Recorded and released by Stevie Wonder in 1966. Charted at
number 20 in the UK January 1967. Original bassist
James Jamerson possibly playing his upright bass. Tab by
bass50611. Not exactly has Jamersons original bassline
but it fits, nice to play along to and its all below the
5th fret as Jamerson liked.
Any comments its [email protected]
Play as a walking bassline and note detune one your bass by
semitone to play to the record.

Intro:
F#|-----0-1-2-------------------|
C#|-2-4-------------------------|
G#|-----------0-2-4---5---5---5-|
D#|---------------------5-------|

Verse:
F#|-----0-4-2-------------------------------------------------|
C#|-2-4-------2------------------------------2----------------|
G#|-------------0-4-5-55-4-2-22---0-00---0-4---4--5-5---5---5-|
D#|--------------------------------------------------5--------|

F#|-----0-4---------------------------------2--------------------|
C#|-2-4---------2-----------------------2-----2---2--------------|
G#|---------0-4---4---5-55-4-2-22---0-4---4-----4----5-5---5---5-|
D#|-----------------------------------------------------5--------|

Chorus:             .
F#|-----0-1-2-------------------------------2---------------------|
C#|-2-4-------2---2-0-----0-4--------------2----------------------|
G#|-------------4-------------2---2-1-0---0---0-2-4---5-5---5---5-|
D#|------------------------------------------------------5--------|

Repeat Verse and Chorus:

Spoken Bridge:
F#|-----0-1-2--------------------|
C#|-2-4-------2---2--------------|
G#|-------------4----5-5---5---5-|
D#|---------------------5--------|

Repeat Chorus to Fade:
less
plus
Add to Songbook Print Version How to play lesson Submit videolesson
Click the best TAGS for this song:
None of them
Contributor: ..::jjbb Correct

If you can not find the chords or tabs you want, look at our partner E-chords. If you are a premium member, you have total access to our video lessons.

If you find a wrong Bad To Me from Stevie Wonder, click the correct button above.

login/signup
my songbooks
my recent views
my submits