Stone Temple Pilots

Plush bass

Stone Temple Pilots

Album:Core

Year:1992

tools Ultimate Tabs

Start AutoScroll Font Size Down Font Size Up

Find us on Facebook

chords tabs
bass
ukulele keyboards drums
flute
harmonica
guitar pro
video
Ultimate-Tabs

Plush

Bass Tab 
   
  Intro 
G:------------------|------------------|-----------------|-----------------| 
D:------------------|------------------|-----------------|-----------------| 
A:--------------1---|----1-1-1-1---1-2-|-3---3-----------|---------1-3-4---| 
E:--3---3-----------|------------3-----|-------------3---|---3-3-3---------| 


G:-----------------|--------------------|-----------------|-----------------| 
D:-----------------|--------------------|-----------------|-----------------| 
A:-5-----------1---|------1-1-1-1---1-2-|-3---3-----------|---------1-3-4---| 
E:-----3-----------|--------------3-----|-------------3---|---3-3-3---------| 


G:-----------------|--------------------|-----------------|-----------------| 
D:-----------------|--------------------|-----------------|-----------------| 
A:-5-----------1---|----1-1-------1-2---|-3---3-----------|---------1---3-4-| 
E:-----3-----------|------------3-------|-------------3---|---3-3-3---------| 


G:-----------------|-----------------|------------------|-----------------| 
D:-----------------|-----------------|------------------|-----------------| 
A:-5-----------1---|----1-1------1-2-|-3---3------------|-----------------| 
E:-----3-----------|-----------3-----|-------------3----|-----------------| 


G:----------------|| 
D:----------------|| 
A:----------------|| 
E:----------------|| 


       Verse 
G:-----------------|--------------|-----------------|-----------------| 
D:---------------5-|-4----------2-|-3---3---------3-|-2---------------| 
A:-3---3-----------|-----5--------|-----------------|-----3---------5-| 
E:-----------------|--------------|-----------------|-----------------| 


G:-----------------|-----------------|-----------------|-----------------| 
D:-----------------|-----------------|---------------5-|-4-------------2-| 
A:-6---6-----------|-6-6---8---------|-----------------|-----5-----------| 
E:---------------6-|-----------------|-3---3-----------|-----------------| 


G:-----------------|------------------|-----------------|-----------------|| 
D:-3---3---------3-|-2----------------|-----------------|-----------------|| 
A:-----------------|-----3----------5-|-6---6-----------|-6-6---8---------|| 
E:-----------------|------------------|---------------6-|-----------------|| 




   PreChorus 
G:-----------------|-----------------|-----------------|-----------------| 
D:-----------------|-------------2-4-|-----------------|-----------------| 
A:-5---5-5-3-----2-|-----3-----5-----|-5---5-5-3-----2-|---5-------2-3---| 
E:-----------------|-----------------|-----------------|-----3---5-----5-| 


G:-----------------|-----------------|-----------------|-----------------|| 
D:-----------------|-------------2-4-|-----------------|-----------------|| 
A:-5---5-5-3-----2-|-----3-----5-----|-5---5-5-3---3-2-|-----3-----3-5-5-|| 
E:-----------------|-----------------|-----------------|-----------------|| 




   1st Chorus 
G:----------------|----------------|-----------------|------------------| 
D:----------------|-----------10-8-|-7---------------|------------------| 
A:-6---6----------|-6-6---6-8------|-----8-----------|-8-8-----8-10-7-| 
E:--------------6-|----------------|---------------8-|-------8----------| 


G:-----------------|------------------|-----------------|------------------| 
D:-----------------|-------------10-8-|-7---------------|------------------| 
A:-6---6-----------|-6-6-----6-8------|-----8-----------|-8-8-----8-10-7-| 
E:---------------6-|-------6----------|---------------8-|-------8----------| 


G:-----------------|------------------|-----------------|------------------| 
D:-----------------|-------------10-8-|-7---------------|------------------| 
A:-6---6-----------|-6-6-----6-8------|-----8-----------|-8-8-----8-10-7-| 
E:---------------6-|-------6----------|---------------8-|-------8----------| 



G:-----------------|----------------|------------------|-----------------| 
D:-----------------|----------------|-------------10-8-|-7---------------| 
A:-6---6-----------|6---6-----------|-6-6-----6-8------|-----8-----------| 
E:---------------6-|--------------6-|-------6----------|---------------8-| 


G:-----------------|-----------------|-----------------|-----------------| 
D:-----------------|-----------------|-----------------|-----------------| 
A:-8-8-----8-8-----|-------------1---|--1-1--------1-2-|-3---3-----------| 
E:-------8-----8-\-|-3-3-3-3---------|-----------3-----|-------------3---| 


G:------------------|-----------------|-------------------|-----------------| 
D:------------------|-----------------|-------------------|-----------------| 
A:----------1-3-4---|-5-----------1---|-----1-1-1-1---1-2-|-3---3-----------| 
E:----3-3-3---------|-----3-----------|-------------3-----|-------------3---| 


G:----------------|------------------|| 
D:----------------|------------------|| 
A:----------------|------------------|| 
E:----------------|------------------|| 





   2nd Chorus                          //   Play 3 times 
G:-----------------|------------------||------------------| 
D:-----------------|-------------10-8-||o-7---------------| 
A:-6---6-----------|-6-6-----6-6------||o-----8-----------| 
E:---------------6-|-------6----------||----------------8-| 
                                       \ 
                                                            \ 
G:-------------------|-----------------|---------------------|| 
D:-------------------|-----------------|-------------10-8--o-|| 
A:-8-8------8-10-7-|-6---6-----------|-6-6-----6-6-------o-|| 
E:--------8----------|---------------6-|-------6-------------|| 
                                                            // 

G:-----------------|-----------------||| 
D:-7---------------|-----------------||| 
A:-----8-----------|-8-8---8-8-8-----||| 
E:---------------8-|-----8-------8-\-||| 




       Bridge 
   //                                                   Play 
G:||-------------------|------------------|-----------------| 
D:||o------------------|------------------|-----------------| 
A:||o------------------|------------------|---------------5-| 
E:||---3-3-3-3-3-----3-|-1---1-1---1------|-0-0-0-0-0-------| 
   \ 


  3 times           \ 
G:-------------------||-----------------|-----------------|-----------------| 
D:------------------o||-----------------|-----------------|-----------------| 
A:-6-6-6-6-5-5-5-5--o||-----------------|-----------------|---------------5-| 
E:-------------------||-3-3-3-3-3-----3-|-1---1-1---1-----|-0-0-0-0-0-------| 
                    // 


G:-----------------||| 
D:-----------------||| 
A:-6-------5-------||| 
E:-----------------||| 


Song Path: 
========== 
Intro 
Verse (And I feel/times a wasted go...) 
PreChorus (And I feel it...) 
1st Chorus (Where ya goin' for tomorrow...) 
Verse (And I feel/so much depends on the weather...) 
PreChorus 
2nd Chorus 
Bridge (When the dogs can find her...) 
Intro 
2nd Chorus 
Bridge 
Intro  
less
plus
Add to Songbook Print Version How to play lesson Submit videolesson
Click the best TAGS for this song:
None of them
Contributor: sanmBobM Correct

If you can not find the chords or tabs you want, look at our partner E-chords. If you are a premium member, you have total access to our video lessons.

If you find a wrong Bad To Me from Stone Temple Pilots, click the correct button above.

login/signup
my songbooks
my recent views
my submits