S Sublime

All You Need tab

Sublime

tools Ultimate Tabs

Start AutoScroll Font Size Down Font Size Up

Find us on Facebook

chords
tabs
bass
ukulele
keyboards
drums
flute
harmonica
guitar pro
video
Ultimate-Tabs

All You Need

-55x5x5x5x5--   -55x-5/-8-8x-8\-xx----------| 
-55x5x5x5x5--   -55x-5/-8-8x-8\-77x-7/10x10-| 
-55x5x5x5x5--   -55x-5/1010x10\-77x-7/10x10-| 
-------------   ----------------77x-7/10x10-| 
-------------   ----------------------------| 
-------------x2 ----------------------------|x4 

-----------------------| 
-----------------------| 
-----------------------| 
-7-5-------------------| 
-----7-6-5-3b-0-3-4-5b-| 
-----------------------| 

    Am+           Am+     C+     D+    F+ 

-55x5x5x5x5--   -55x-5/-8-8x-8\-xx----------| 
-55x5x5x5x5--   -55x-5/-8-8x-8\-77x-7/10x10-| 
-55x5x5x5x5--   -55x-5/1010x10\-77x-7/10x10-| 
-------------   ----------------77x-7/10x10-| 
-------------   ----------------------------| 
-------------x6 ----------------------------|x4 

                 F#m 

-----------------------------------------| 
-----------------------------------------| 
----------2:--------2:------------2:-----| 
---4:-------4:----------4:----------4:---| 
--------------4:----------4:----------4:-| 
-2:-----2:--------2:------------2:-------| 

  A5    E5+       C#5             A5   B5   D5   E5+ 

-----------------------------------------------------| 
-----------------------------------------------------| 
------x99-99x------------------------------7777-9999-| 
-77-77x99-99x1111111111111111----7777-9999-7777-9999-| 
-77-77x77-77x1111111111111111----7777-9999-5555-7777-| 
-55-55x-----x-9-9-9-9-9-9-9-9----5555-7777-----------| 
                                 |.......pm.........| 
 F#5+   B5  F#5+  B5  F#5+  B5 C#5 

----------------------------------| 
----------------------------------| 
-1111xx----1111xx----1111xx-------| 
-1111xx-99-1111xx-99-1111xx-99-11-| 
--9-9xx-99--9-9xx-99--9-9xx-99-11-| 
--------77--------77--------77--9-| 

  Am      C       D     F 

-55x-5/-8-8x-8\-xx-----------| 
-55x-5/-8-8x-8\-77x-7/10x10--| 
-55x-5/1010x10\-77x-7/10x10--| 
----------------77x-7/10x10--| 
-----------------------------| 
-----------------------------| 

-----------------------| 
-----------------------| 
-----------------------| 
-7-5-------------------| 
-----7-6-5-3b-0-3-4-5b-| 
-----------------------| 

   Am            Am      C       D     F 

-55x5x5x5x5--   -55x-5/-8-8x-8\-xx----------| 
-55x5x5x5x5--   -55x-5/-8-8x-8\-77x-7/10x10-| 
-55x5x5x5x5--   -55x-5/1010x10\-77x-7/10x10-| 
-------------   ----------------77x-7/10x10-| 
-------------   ----------------------------| 
-------------x6 ----------------------------|x4 

F#m 

-2:- 
-2:- 
-2:- 
-4:- 
-4:- 
-2:-x4 

A5    E5+       C#5             A5   B5   D5   E5+ 

-----------------------------------------------------| 
-----------------------------------------------------| 
------x99-99x------------------------------7777-9999-| 
-77-77x99-99x1111111111111111----7777-9999-7777-9999-| 
-77-77x77-77x1111111111111111----7777-9999-5555-7777-| 
-55-55x-----x-9-9-9-9-9-9-9-9----5555-7777-----------| 
                                 |.......pm.........| 

 F#5+   B5  F#5+  B5  F#5+  B5 C#5 

----------------------------------| 
----------------------------------| 
-1111xx----1111xx----1111xx-------| 
-1111xx-99-1111xx-99-1111xx-99-11-| 
--9-9xx-99--9-9xx-99--9-9xx-99-11-| 
--------77--------77--------77--9-| 

  Am      C       D     F 

-55x-5/-8-8x-8\-xx-----------| 
-55x-5/-8-8x-8\-77x-7/10x10--| 
-55x-5/1010x10\-77x-7/10x10--| 
----------------77x-7/10x10--| 
-----------------------------| 
-----------------------------| 

-----------------------| 
-----------------------| 
-----------------------| 
-7-5-------------------| 
-----7-6-5-3b-0-3-4-5b-| 
-----------------------| 

Guitar Solo (may suck): 

----------------6-3-------------------6600-5b-------6p5p3p0--------| 
-------------------6--------------------------5b-5b----------------| 
-5b-5b-5b-(5)-5-------5b-3-0-3b-----------------------------7b^--0-| 
-----------------------------------------------------------------0-| 
-------------------------------------------------------------------| 
-------------------------------------------------------------------| 

    E5+ & Open E string 

---------------------------| 
---------------------------| 
-9-9-9-9-9-9-9-9-9-9-9-9-9-| 
-9-9-9-9-9-9-9-9-9-9-9-9-9-| 
-7-7-7-7-7-7-7-7-7-7-7-7-7-| 
-0-0-0-0-0-0-0-0-0-0-0-0-0-| as many as needed 

 E5+  F5  C#5  A5+ 

-------------------| 
-------------------| 
-99/1010/1111/1414- 
-99/1010/1111/1414- 
-77/-8-8/-9-9/1212-| 
-00-0-0---0-0--0-0-| 

 A5  C5  D5 E5+ 

---------------| 
---------------| 
---------77-99-| 
-77-1010-77-99-| 
-77-1010-55-77-| 
-55--8-8-------| x4 

-----------------------| 
-----------------------| 
-----------------------| 
-7-5-------------------| 
-----7-6-5-3b-0-3-4-5b-| 
-----------------------| 

A5 

------| 
------| 
------| 
-7:x\-| 
-7:x\-| 
-5:x\-| 

  
less
plus
Add to Songbook Print Version How to play lesson Submit videolesson
Click the best TAGS for this song:
None of them
Contributor: Steitima Correct

If you can not find the chords or tabs you want, look at our partner E-chords. If you are a premium member, you have total access to our video lessons.

If you find a wrong Bad To Me from Sublime, click the correct button above.

login/signup
my songbooks
my recent views
my submits