S Sublime

We're Only Gonna Die For Our Arrogance tab

Sublime

Album:40 Oz. to Freedom

Year:1996

tools Ultimate Tabs

Start AutoScroll Font Size Down Font Size Up

Find us on Facebook

chords
tabs
bass
ukulele
keyboards
drums
flute
harmonica
guitar pro
video
Ultimate-Tabs

We're Only Gonna Die For Our Arrogance

 
**Normal Tuning** 
 
Intro: 
e|-------------------------------------------------| 
B|-------------------------------------------------| 
G|-------------------------------------------------| 
D|-------------------------------------------------| 
A|-12-12-12-1210-10-10-109-9-9-95-5-5-5-7-7-7-7-| 
E|-------------------------------------------------| 
 
 
e|------------------------------------------| 
B|--------8-7-------------------------------| 
G|-5b6--9-----9-7b9-5h7p5-5-------------5b6-| 
D|--------------------------7-5h7-7-7-7-----| 
A|------------------------------------------| 
E|------------------------------------------| 
 
 
e|-------------------15--15-17-17----17-15-14-------------| 
B|-15-15-15-17-17-17--------------17----------17-15-13----| 
G|-----------------------------------------------------14-| 
D|--------------------------------------------------------| 
A|--------------------------------------------------------| 
E|--------------------------------------------------------| 
 
 
e|-----------------------------------------------------------------------| 
B|-----------------------------------------------------------------------| 
G|-14-14-14-14-12h14p12-14-12-12-12-12-11-11-11-11-9-9-9-9-7-7-7-7-5-5---| 
D|---------------------------------------------------------------------7-| 
A|-----------------------------------------------------------------------| 
E|-----------------------------------------------------------------------| 
 
 
 
Heavy part after "let's go!": 
    G A    G A    G A    C  G 
e|-----------------------------| 
B|-----------------------------| 
G|-----------------------5-----| 
D|--5/7-7--5/7-7--5/7-7--5--5--| 
A|--5/7-7--5/7-7--5/7-7--3--5--| 
E|--3/5-5--3/5-5--3/5-5-----3--|  
 
Lyrics 
A                 G      D                  A 
Early man walked away as modern man took control 
                    G                   D                 A 
Their minds weren't all the same and to conquer was their goal 
                G                    D                  A 
So he built his great empire and he slaughtered his own kind 
          G                             D                  A 
He died a confused man and he killed himself with his own mind 
Let's go!! 
 
 
Heavy part after "Let's go!": 
    G A    G A    G A    C  G 
e|-----------------------------| 
B|-----------------------------| 
G|-----------------------5-----| 
D|--5/7-7--5/7-7--5/7-7--5--5--| 
A|--5/7-7--5/7-7--5/7-7--3--5--| 
E|--3/5-5--3/5-5--3/5-5-----3--|  
 
 
We're only gonna die from our own arrogance 
That's why we might as well take our time 
 
Solo: 
 
e|--------------------------------------------------------------------| 
B|------------------------------------------8-7-----------------------| 
G|----------------------------------------9-----9-7h9-7-6-7-6-7h9-7h9-| 
D|-------------------------7-7-7-7-7-7--------------------------------| 
A|-7-7-7-7-7-7-5-5-5-5-5-5-5-5-5-5-5-5-7------------------------------| 
E|-5-5-5-5-5-5-3-3-3-3-3-3-------------5------------------------------| 
 
e|--------------------------------------------------------------------| 
B|-14-...-15-15-15-15-14-14-14-14-12-12-12-12-10-10-10h12p10-10----10-| 
G|--------------------------------------------------------------12----| 
D|--------------------------------------------------------------------| 
A|--------------------------------------------------------------------| 
E|--------------------------------------------------------------------| 
 
e|-------------12p15h12-12p15h12-12p15h12-12p15h12-15b17-17r15-| 
B|-10-10-------------------------------------------------------| 
G|-------12-12-------------------------------------------------| 
D|-------------------------------------------------------------| 
A|-------------------------------------------------------------| 
E|-------------------------------------------------------------| 
 
less
plus
Add to Songbook Print Version How to play lesson Submit videolesson
Click the best TAGS for this song:
None of them
Contributor: krisfore Correct

If you can not find the chords or tabs you want, look at our partner E-chords. If you are a premium member, you have total access to our video lessons.

If you find a wrong Bad To Me from Sublime, click the correct button above.

login/signup
my songbooks
my recent views
my submits