S Sungha Jung

Hit The Road Jack tab

Sungha Jung

tools Ultimate Tabs

Start AutoScroll Font Size Down Font Size Up

Find us on Facebook

chords
tabs
bass
ukulele
keyboards
drums
flute
harmonica
guitar pro video
Ultimate-Tabs

Hit The Road Jack

	 
E|---0-----------------------|-----0--0---5--5---8--8------| 
B|-----1-3--------1-1-3-1-3-1|-----1--1---5--5---8--8--10--| 
G|-----------2---------------|-----2--2---5--5---7--7---9--| 
D|---------------------------|-----------------------------| 
A|-------0-------------------|-----0-------------8---------| 
E|------------3---1-------0--|------------3-------------0--| 



E|---0----------------------|--------------------------------| 
B|-----1-3-------1-1-3-1-3-1|--------------------------------| 
G|-----------2--------------|-------2------------1-----------| 
D|--------------------------|---2-------2----2---------------| 
A|-------0------------------|------------------------0-------| 
E|-----------3---1-------0--|-1---1---1----0---0--------0h3--| 



E|---------------------|-0--|-------------------------| 
B|---------------------|---1|o-3----------1-1-3-1-3-1-| 
G|--------2-------1----|----|-------2-----------------| 
D|----2-------2---2----|----|-------------------------| 
A|---------------------|----|o-0-X-----X--------------| 
E|--1---1---1-----0----|----|----X---3-X--1---1---0---| 



E|-0--0---5--5---8--8-|-5p0---------0------|-------------------| 
B|-1--1---5--5---8--8-|-----8--------------|-1-1-3-1-3-1-------| 
G|-2--2---5--5---7--7-|-------5p0-------2--|-------------2p0h2-| 
D|--------------------|-----------7--------|-------------------| 
A|-0-------------8----|-------------0-0--3-|-----------------0-| 
E|--------3-----------|-0------------------|-1---1---0---------| 



E|------5-5--8-|-0------------------------|0-0--5-5---8--8---| 
B|------5-5--8-|---1-3--------1-1-3-1-3-1-|1-1--5-5---8--8---| 
G|------5-5--7-|---------2----------------|2-2--5-5---7--7---| 
D|--2---3-3----|--------------------------|------------------| 
A|0------------|-----0-X----X-------------|0-0--------8--8---| 
E|--3-3--------|-------X--3-X-1---1---0---|-----3-3----------| 



E|-5p0-------0---------|---------------|---------------2/5--2/5-| 
B|----8---------------1|1-3-1-3-1------|------------------------| 
G|-----5p0-------2-----|----------2p0h2|------------------------| 
D|--------7------------|---------------|----2-------------------| 
A|-----------0-0-------|--------------0|-0--------------------0-| 
E|-0--------------3-3-1|--1---0--------|----3-3-1-1-0-----------| 



E|-0-------------------0|----0---------------|-----------0--5--8-| 
B|---4-3-1---1-2-3-1-4--|--4---3-----1-------|-----1---3----5--8-| 
G|---------2------------|----------2---2-0---|-0-2---0------5--7-| 
D|----------------------|------------------2-|--------------3----| 
A|---0------------------|----0-0-------------|---0-0-----0-------| 
E|-------3---3---1---1--|--------3-3-1---1--0|---------3---------| 



E|-----0---0---0--------------8|-0-----------------------| 
B|---3---3---3----------------8|---1-3--------1-1-3-1-3-1| 
G|----------------2-2---------7|---------2---------------| 
D|-----------------------------|-------------------------| 
A|-----0---0-------------------|-----0-0-----------------| 
E|-------------3---3---1--1---0|----------3-3-1---1---0--| 



E|-0-0--5-5--8--8-|-5p0-------0---------------------| 
B|-1-1--5-5--8--8-|----8---------------1-1-3-1-3-1--| 
G|-2-2--5-5--7--7-|-----5p0-------2-----------------| 
D|----------------|---------7-----------------------| 
A|-0---------8----|-----------0-0-------------------| 
E|------3---------|-0--------------3-3-1---1---0----| 



E|-----------------|-------------------------------| 
B|-----------------|-------0h1---0------0h1---0----| 
G|-2---------------|-----2-----2------2-----2------| 
D|------2----------|-------------------------------| 
A|-0-0-------------|---0---0-----------------------| 
E|------3-3--1-1-0-|-------------3--3---1-----1-0-0| 



E|-------------------0-------0--| 
B|-----0h1---0-----1-----0------| 
G|---2-----2-----2-------1------| 
D|------------------------------| 
A|-0---0------------------------| 
E|-----------3-3---1---1---0---0| 



E|-----------------------------|--------------------------| 
B|-----0h1---0------0h1---0----|-----0h1---0--------------| 
G|---2-----2------2-----2------|---2-----2---------1---2--| 
D|-----------------------------|---------------0-2-2---2--| 
A|-0---0-----------------------|-0---0---------0-2-------0| 
E|-----------3--3---1-----1-0-0|-----------3-3---0---0----| 



E|---0-----------------------|-----0--0---5--5---8--8-| 
B|-----1-3--------1-1-3-1-3-1|-----1--1---5--5---8--8-| 
G|-----------2---------------|-----2--2---5--5---7--7-| 
D|---------------------------|------------------------| 
A|-------0-------------------|-----0-------------8----| 
E|------------3---1---1---0--|------------3-----------| 



E|-5p0-------0---------|---------------|--------| 
B|----8---------------1|1-3-1-3-1------|--------| 
G|-----5p0-------2-----|----------2p0h2|--------| 
D|--------7------------|---------------|----2---| 
A|-----------0-0-------|--------------0|-0------| 
E|-0--------------3-3-1|--1---0--------|----3-3-| 



E|-5-5-8-|-0------------------------|0-0--5-5---8--8---| 
B|-5-5-8-|---1-3--------1-1-3-1-3-1-|1-1--5-5---8--8---| 
G|-5-5-7-|---------2----------------|2-2--5-5---7--7---| 
D|-3-3---|--------------------------|------------------| 
A|-------|-----0-X----X-------------|0-0--------8--8---| 
E|-------|-------X--3-X-1---1---0---|-----3-3----------| 



E|-5p0-------0---------|---------------|--------| 
B|----8---------------1|1-3-1-3-1------|--------| 
G|-----5p0-------2-----|----------2p0h2|--------| 
D|--------7------------|---------------|----2---| 
A|-----------0-0-------|--------------0|-0------| 
E|-0--------------3-3-1|--1---0--------|----3-3-| 



E|-------------------------5-7-7b--7-5---5-----------0| 
B|-1-1-3-1-3-1---------5-8-------------8---8-5-8-5----| 
G|-------------2-0-2-------------------------------7--| 
D|----------------------------------------------------| 
A|-------------------0--------------------------------| 
E|-1---1---0---0--------------------------------------| 



E|---0-3-1-0---------------------------------| 
B|----------3-1-0----------------------------| 
G|----------------2-0-2-0--------------------| 
D|------------------------3-2-0-2-3-2-0------| 
A|--------------------------------------3-0--| 
E|-3----------------------------------------0| 



E|----------------------------------------| 
B|-----1-0---1-0--1-0----1-0--------0-1-0-| 
G|---------2----2-----2------2--0-2------2| 
D|----------------------------------------| 
A|----------------------------------------| 
E|-1-1-------------------1----------------| 



E|-------------------------10-13-| 
B|--------------------9-12-------| 
G|---------------7-10------------| 
D|-----------6-9-----------------| 
A|-------5-8---------------------| 
E|-0-4-7-------------------------| 



E|---0-------5------5-------8-----8--| 
B|---1-------5------5-------8-----8--| 
G|---0-------5------5----------------| 
D|-----------------------------------| 
A|-0---X-0-3--X-0-----X-0-8---7------| 
E|----------------1-------------8---7| 



E|---0-------5-------5-----8-8--| 
B|---1-------5-------5-----8-8--| 
G|---0-------5-------5----------| 
D|------------------------------| 
A|-0---X-0-3---X-0-----X-0-8-7--| 
E|-----------------1-----------8| 



E|---0-------5-------5-------5-------8-----8--| 
B|---1-------5-------5-------5-------8-----8--| 
G|---0-------5-------5-------5----------------| 
D|--------------------------------------------| 
A|-0---X-0-3---X-0-----X-0-----X-0-8---7------| 
E|-----------------1-------1-------------8---7| 



E|---0-------5-------5---4---0----| 
B|---1-------5-------5---3-----1-o| 
G|---0-------5-------5---4--------| 
D|--------------------------------| 
A|-0---X-0-3---X-0-----X---------o| 
E|-----------------1-------0------| 



E|-----------------------------------| 
B|---------1-1-3-1-3-1---------------| 
G|---------------------2-0-2---------| 
D|-----------------------------------| 
A|-0-0-----------------------0-0-----| 
E|-----3-3-1---1---0---0---------3-3-| 



E|--------------------------| 
B|-1-1-3-1-3-1--------------| 
G|-------------2-0-2--------| 
D|--------------------------| 
A|-------------------0-0----| 
E|-1---1---0---0---------3-3| 


E|------------------------------------0-1-0----------------------| 
B|-1-1-3-1-3-1------------------0-1-3-------3-1-0----------------| 
G|-------------2-0-2--------0-2-------------------2-0------------| 
D|----------------------0-2---------------------------2-0--------| 
A|--------------------0-----------------------------------3-2-0--| 
E|-1---1---0---0------------------------------------------------3| 

E|---7| 
B|---5| 
G|---5| 
D|---4| 
A|-0--| 
E|----|  
less
plus
Add to Songbook Print Version How to play lesson Submit videolesson
Click the best TAGS for this song:
None of them
Contributor: schualex Correct

If you can not find the chords or tabs you want, look at our partner E-chords. If you are a premium member, you have total access to our video lessons.

If you find a wrong Bad To Me from Sungha Jung, click the correct button above.

login/signup
my songbooks
my recent views
my submits