Tad

Just Bought The Farm tab

Tad

tools Ultimate Tabs

Start AutoScroll Font Size Down Font Size Up

Find us on Facebook

chords
tabs
bass
ukulele
keyboards
drums
flute
harmonica
guitar pro
video
Ultimate-Tabs

Just Bought The Farm

TAD
Song: Just Bought the Farm
Album: Inhaler
Tabbed by Anthony DePiano on December 2, 2007

Tuning: Dropped D (DADGBe)

< > = artificial harmonic (pinch harmonic)
h = hammer-on
v = vibrato (hold note for a while)
b = bend note

INTRO:
e-------------------------------------|
B-------------------------------------|
G-------------------------------------|
D-------------------------------------|
A----<12>v----------------------------|
D---------------------<14>v-----------|

e-------------------------------------|
B-------------------------------------|
G-------------------------------------|
D-------------------------------------|
A----<12>v----------------------------|
D---------------------<14>v-----------|
I’m a little iffy on the second part

VERSE:
   D E     F
e-------------------------------------|
B-------------------------------------|
G-------------------------------------|
D--0h2-2-2-3-2---0h2-2-3-2------------|
A--0h2-2-2-3-2---0h2-2-3-2------------|
D--0h2-2-2-3-2---0h2-2-3-2------------|
|                                    |
|  D E     F     G                   |
e-------------------------------------|
B-------------------------------------|
G-------------------------------------|
D--0h2-2-2-3-2---5-5-5-5-5-5----------|
A--0h2-2-2-3-2---5-5-5-5-5-5----------|
D--0h2-2-2-3-2---5-5-5-5-5-5----------| 4x

CHORUS: Wah-wah part
   F   D  C     D  C D C
e-------------------------------------|
B-------------------------------------|
G-------------------------------------|
D--3b---------------------------------| 4x
A------5--3v----5--3-5-3--------------|
D-------------------------------------|
“And I stand
 I stand back
‘cause I want
 to watch it burn.”

e-------------------------------------|
B-------------------------------------|
G-------------------------------------|
D-------------------/3----------------|
A--5vvvv------------/3----------------|
D-------------------------------------|

e-------------------------------------|
B-------------------------------------|
G--2-2-2-2-2-2-2-2-2-2-2-2-2-2-2-2-2--|
D--0-0-0-0-0-0-0-0-0-0-0-0-0-0-0-0-0--|
A-------------------------------------|
D-------------------------------------|
  Palm mute
e-------------------------------------|
B-------------------------------------|
G--5-5-5-5-5-5-5-5-5-5-5-5-5-5-5-5-5--|
D--3-3-3-3-3-3-3-3-3-3-3-3-3-3-3-3-3--|
A-------------------------------------|
D-------------------------------------|
   Palm mute
e-------------------------------------|
B-------------------------------------|
G--2-2-2-2-2-2-2-2-2-2-2-2-2-2-2-2-2--|
D--0-0-0-0-0-0-0-0-0-0-0-0-0-0-0-0-0--|
A-------------------------------------|
D-------------------------------------|
   Palm mute
e-------------------------------------|
B-------------------------------------|
G--5-5-5-5-5-5-5-5-5b-5b-5b-5b-5b-5b--|
D--3-3-3-3-3-3-3-3-3b-3b-3b-3b-3b-3b--|
A-------------------------------------|
D-------------------------------------|
   Palm mute until ^

“Just before you fall asleep
 That is where I want to be”

VERSE

CHORUS

GUITAR I
   E        D          B          C
e--------------------------------------|
B--------------------------------------|
G--9v-------7v-------------------------|
D----------------------9v--------10v---| 2x
A--------------------------------------|
D--------------------------------------|

GUITAR II
e--------------------------------------|
B--------------------------------------|
G--------------------------------------|
D--------------------------------------| 2x
A-<12>v----<10>v-------<7>v------<8>v--|
D--------------------------------------|
  A little iffy about this part – it sounds
  pretty good.  It sounds like the below
  figure which is just an octave higher than
  what GUITAR I plays.
    E        D        B       C
e---12---------------------------------|
B------------15------12-------13-------|
G--------------------------------------|
D--------------------------------------|
A--------------------------------------|
D--------------------------------------|


GUITAR I
e-------------------------------------|
B-------------------------------------|
G--2-2-2-2-2-2-2-2-2-2-2-2-2-2-2-2-2--|
D--0-0-0-0-0-0-0-0-0-0-0-0-0-0-0-0-0--|
A-------------------------------------|
D-------------------------------------|
  Palm mute
e-------------------------------------|
B-------------------------------------|
G--5-5-5-5-5-5-5-5-5-5-5-5-5-5-5-5-5--|
D--3-3-3-3-3-3-3-3-3-3-3-3-3-3-3-3-3--|
A-------------------------------------|
D-------------------------------------|
   Palm mute
e-------------------------------------|
B-------------------------------------|
G--2-2-2-2-2-2-2-2-2-2-2-2-2-2-2-2-2--|
D--0-0-0-0-0-0-0-0-0-0-0-0-0-0-0-0-0--|
A-------------------------------------|
D-------------------------------------|
   Palm mute
e-------------------------------------|
B-------------------------------------|
G--5-5-5-5-5-5-5-5-5-5-5-5-5-5-5-5-5--|
D--3-3-3-3-3-3-3-3-3-3-3-3-3-3-3-3-3--|
A-------------------------------------|
D-------------------------------------|

GUITAR II
   E        F        E         F
e--------------------------------------|
B--5vv------6vv------5vv-------6vv-----|
G--4vv------5vv------4vv-------5vv-----|
D--2vv------3vv------2vv-------3vv-----|
A--2vv------3vv------2vv-------3vv-----|
D--------------------------------------|

I don’t know the solo

Very End
e-------------------------|------------|
B-------------------------|------------|
G-------------------------|------------|
D--3b---------------------|-3-5---0-2--|
A------5--3v----5--3-5-3--|-3-5---0-2--|
D-------------------------|------------|
    4x
less
plus
Add to Songbook Print Version How to play lesson Submit videolesson
Click the best TAGS for this song:
None of them
Contributor: 73rrH.Aa Correct

If you can not find the chords or tabs you want, look at our partner E-chords. If you are a premium member, you have total access to our video lessons.

If you find a wrong Bad To Me from Tad, click the correct button above.

login/signup
my songbooks
my recent views
my submits