Tad

Lycan'thrope tab

Tad

tools Ultimate Tabs

Start AutoScroll Font Size Down Font Size Up

Find us on Facebook

chords
tabs
bass
ukulele
keyboards
drums
flute
harmonica
guitar pro
video
Ultimate-Tabs

Lycan'thrope

TAD
Song: Lycanthrope
Album: Inhaler
Tabbed by Anthony DePiano on December 4, 2007

Tuning: Dropped D (DADGBe)

b = bend note
r = release bend back to normal and pull-off
v = vibrato (let note or chord ring)

GUITAR I
   D         A     G
e-------------------------------------|
B-------------------------------------|
G------------14b15r12-----------------|
D--12vvvv-----------------------------|
A-------------------------------------|
D-------------------------------------|
   Not really sure what GUITAR I plays.
It gets pretty crazy.  Even the D sounds
different (whinier) but it matches up.

GUITAR II
   G   F  D C A  F  G G     F  G G
e-------------------------------------|
B-------------------------------------|
G-------------------------------------|
D---5b--3---------3--5-5-----3--5-5---|
A----------5-3-0--3--5-5-----3--5-5---|
D-----------------3--5-5-----3--5-5---|

GUITAR I
   F  G G               F  G G
e------------------------------------------|
B------------------------------------------|
G------------------------------------------|
D--3--5-5---------------3--5-5-------------|
A--3--5-5---------------3--5-5-------------|
D--3--5-5---------------3--5-5-------------|

GUITAR II
e------------------------------------------|
B------------------------------------------|
G------------------------------------------|
D--3--5-5-3-3-5--3-5----3--5-5-3-3-5--3-5--|
A--3--5-5-3-3-5--3-5----3--5-5-3-3-5--3-5--|
D--3--5-5-3-3-5--3-5----3--5-5-3-3-5--3-5--|
   .  . .               .  . .
 The dots show the obvious rhythm of the song;
 what GUITAR I plays.

e-------------------------------------|
B-------------------------------------|
G-------------------------------------|
D--3--5-5-------3--5-5----------------|
A--3--5-5-------3--5-5----------------|
D--3--5-5-------3--5-5----------------|

CHORUS: I hope it's right.  I'm not 100%
        confident about it.

GUITAR I
  D E F  F F  G G G A  A E
e-------------------------------------|
B-------------------------------------|
G-------------------------------------|
D-------------------------------------|
A------------------------7------------|
D-0-2-3--3-3--5-5-5-7--7--------------|
  Palm mute

GUITAR II
  D
e-------------------------------------|
B-------------------------------------|
G-7vvvvvv-----------------------------|
D-7vvvvvv-----------------------------|
A-5vvvvvv-----------------------------|
D-------------------------------------|

GUITAR I
e-------------------------------------|
B-------------------------------------|
G-------------------------------------|
D-------------------------------------|
A------------------------7------------|
D-0-2-3--3-3--5-5-5-7--7--------------|
  Palm mute

GUITAR II
  E
e-------------------------------------|
B-------------------------------------|
G-9vvvvv------------------------------|
D-9vvvvv------------------------------|
A-7vvvvv------------------------------|
D-------------------------------------|

GUITAR I
e-------------------------------------|
B-------------------------------------|
G-------------------------------------|
D-------------------------------------|
A------------------------7------------|
D-0-2-3--3-3--5-5-5-7--7--------------|
  Palm mute

GUITAR II
  F#
e-------------------------------------|
B-------------------------------------|
G-11vvvvv-----------------------------|
D-11vvvvv-----------------------------|
A--9vvvvv-----------------------------|
D-------------------------------------|

GUITAR I
e-------------------------------------|
B-------------------------------------|
G-------------------------------------|
D-------------------------------------|
A------------------------7------------|
D-0-2-3--3-3--5-5-5-7--7--------------|
  Palm mute

GUITAR II
   G
e-------------------------------------|
B-------------------------------------|
G--12vvvvv----------------------------|
D--12vvvvv----------------------------|
A--10vvvvv----------------------------|
D-------------------------------------|


e-------------------------------------|
B-------------------------------------|
G-------------------------------------|
D--3vv--------------------------------|
A--3vv--------------------------------|
D--3vv--------------------------------|

VERSE – mostly bass

Both guitars play:
e-------------------------------------|
B-------------------------------------|
G-------------------------------------|
D--3--5-5-------3--5-5----------------|
A--3--5-5-------3--5-5----------------|
D--3--5-5-------3--5-5----------------|

CHORUS

Then after this figure:
e-------------------------------------|
B-------------------------------------|
G-------------------------------------|
D--3vv--------------------------------|
A--3vv--------------------------------|
D--3vv--------------------------------|

Play this
GUITAR II
e---------------------------------------|
B---------------------------------------|
G---------------------------------------|
D--2-0-2-----2-0-2-----2-0-2-----2-0-2--|
A--2-0-2-----2-0-2-----2-0-2-----2-0-2--|
D--2-0-2-----2-0-2-----2-0-2-----2-0-2--|

e---------------------------------------|
B---------------------------------------|
G---------------------------------------|
D--2-0-2-----2-0-2-----2-0-2-----2-0-2--|
A--2-0-2-----2-0-2-----2-0-2-----2-0-2--|
D--2-0-2-----2-0-2-----2-0-2-----2-0-2--|
  Repeat

GUITAR I
e---------------------------------------|
B-17--17-17-17--17-17-18-17-17-17-18-17-|
G-16--16-16-16--16-16-16-16-16-16-16-16-|
D---------------------------------------|
A---------------------------------------|
D---------------------------------------|
 Repeat a lot
   D#              D
e-------------------------------------|
B-------------------------------------|
G------------------7bvvvvvvvv---------|
D--1vv--------------------------------|
A--1vv--------------------------------|
D--1vv--------------------------------|
                   Not sure about solo


VERSE

CHORUS

GUITAR II
e-------------------------------------------|
B-------------------------------------------|
G-------------------------------------------|
D--2-0-2-----2-0-2vvv--2-0-2-----2-0-2vvv---|
A--2-0-2-----2-0-2vvv--2-0-2-----2-0-2vvv---|
D--2-0-2-----2-0-2vvv--2-0-2-----2-0-2------|vvv—

GUITAR I
e---------------------------------------|
B-17--17-17-17--17-17-18-17-17-17-18-17-|
G-16--16-16-16--16-16-16-16-16-16-16-16-|
D---------------------------------------|
A---------------------------------------|
D---------------------------------------|

e------------------------------------------|
B------------------------------------------|
G------------------------------------------|
D--2-0-2-----2-0-2vvv--2-0-2-----2-0-2vvv--|
A--2-0-2-----2-0-2vvv--2-0-2-----2-0-2vvv--|
D--2-0-2-----2-0-2vvv--2-0-2-----2-0-2vvv--|

GUITAR I
e---------------------------------------|
B-17--17-17-17--17-17-18-17-17-17-18-17-|
G-16--16-16-16--16-16-16-16-16-16-16-16-|
D---------------------------------------|
A---------------------------------------|
D---------------------------------------|

GUITAR I and II repeat until:
   D#
e-------------------------------------|
B-------------------------------------|
G-------------------------------------|
D--1vvv-------------------------------|
A--1vvv-------------------------------|
D--1vvv-------------------------------|
less
plus
Add to Songbook Print Version How to play lesson Submit videolesson
Click the best TAGS for this song:
None of them
Contributor: HowlMoun Correct

If you can not find the chords or tabs you want, look at our partner E-chords. If you are a premium member, you have total access to our video lessons.

If you find a wrong Bad To Me from Tad, click the correct button above.

login/signup
my songbooks
my recent views
my submits