Tad

Wood Goblins tab

Tad

tools Ultimate Tabs

Start AutoScroll Font Size Down Font Size Up

Find us on Facebook

chords
tabs
bass
ukulele
keyboards
drums
flute
harmonica
guitar pro video
Ultimate-Tabs

Wood Goblins

TAD
Song: Wood Goblins
Album: Salt Lick
Tabbed by Anthony DePiano on September 30, 2007

<> = artificial harmonic
b = bend
/ = slide
~ = vibrato (hold the note for a long time)
h = hammer-on

Jesus Christ, this song was a pain.  I hope
itís alright.

 Not sure at all about the intro
e-------------------------------------|
B---------------------<7>-<8>b--------|
G--------<9>--------------------------|
D-------------------------------------|
A--<7>b-------------------------------|
E-------------------------------------|

Bass Line

    D (I think itís this chord)
e---5~~~~~-------------------------|
B---5~~~~~-------------------------|
G---7~~~~~-------------------------|
D---5~~~~~-------------------------|
A---5~~~~~-------------------------|
E----------------------------------|
   Let it RING!!! Yeeaah!

  E    E/F   E     G     F# G
e------------------------------------------|
B------------------------------------------|
G------9/10--------------------------------|
D--9~~-------9-----------------------------|
A--7~~-------7-----10b~~-9h10-9h10-9h10-9~-|
E--0~~-------0-----------------------------|
   ^hold chord while you slide 9/10 (Guitar II
    probably plays that anyway)

   E                 G
e--------------------------------|
B--------------------------------|
G--------------------------------|
D--9-9--9-9-9-9------------------|
A--7-7--7-7-7-7-----10b~---------|
E--0-0--0-0-0-0------------------|

Verse: Bass plays

CHORUS: Guitar I

   E  G  F# F
e-------------|------------|-------------|
B-------------|------------|-------------|
G-------------|------------|-------------|
D--2--5b------|-2--5b------|-2--5b-------|
A--2-----4-3--|-2-----4-3--|-2-----4-3---|
E--0-----2-1--|-0-----2-1--|-0-----2-1---|
 Wood Goblin!  Wood Goblin!  Wood Goblin!

e---------------|
B---------------|
G---------------|
D--2--5b--------|
A--2------4-3---|
E--0------2-1---|
  Wood Goblin!

CHORUS: Guitar II (I prefer playing this version)

   E   G  F# F
e---------------|---------------|----------------|
B---------------|---------------|----------------|
G---------------|---------------|----------------|
D--9------11-10-|--9------11-10-|--9------11-10--|
A--7--10b--9--8-|--7--10b--9--8-|--7--10b--9--8--|
E--0------------|--0------------|--0-------------|
  Wood Goblin!    Wood Goblin!     Wood Goblin!

e----------------|
B----------------|
G----------------|
D--9------11-10--|
A--7--10b--9--8--|
E--0-------------|
  Wood Goblin!

   E      F     G
e------------------------------------------|
B------------------------------------------|
G------------------------------------------|
D------------------------------------------|
A--7~~~~--8b~--10b~~~---7~~~---8b~---10b~--|
E--0~~~~----------------0~~~---------------|
                ^ These 10ís might be played by
                  Guitar II so they overlap the 8ís

VERSE: Bass plays

CHORUS 8 x

SOLO:
Guitar I plays:
       E  F
e--------------|----------------|
B--------------|----------------|
G--------------|----------------| Play
D------9-10----|-----9-10-------|  4
A------7--8----|-----7--8-------| Times
E--------------|----------------|

Guitar II (solo)
   D                 E         F
e------------------------------------|
B------------------------------------| Play
G------------------------------------|  4
D--12-12-12-12-12-12-14-14-14b15-15--|  Times
A------------------------------------|
E------------------------------------|
   D               G       A         B
e--------------------------------------|
B--------------------------------------| Play
G--------------------------------------|  4
D--0-0-0-0-0-0-0-0-5-0-0-0-7-0-0-0-0-9-| Times
A--------------------------------------|
E--------------------------------------|

THEN
e------------------------------------------|
B------------------------------------------|
G------------------------------------------|
D------------------------------------------|
A--7~~~~~~---8b~~~~~------7~~~~~~---8b~~~~-|
E--0~~~~~~----------------0~~~~~~----------|

VERSE: Bass plays

CHORUS 8 x

SOLO

e--------|
B--------|
G--------|
D--------|
A--7~~~--
E--0-----
less
plus
Add to Songbook Print Version How to play lesson Submit videolesson
Click the best TAGS for this song:
None of them
Contributor: aprialve Correct

If you can not find the chords or tabs you want, look at our partner E-chords. If you are a premium member, you have total access to our video lessons.

If you find a wrong Bad To Me from Tad, click the correct button above.

login/signup
my songbooks
my recent views
my submits