S T.A.T.U.

All the things she said bass

T.A.T.U.

tools Ultimate Tabs

Start AutoScroll Font Size Down Font Size Up

Find us on Facebook

Ultimate-Tabs

All the things she said

Tuning: (5 string: D E A D G) or (4 string Drop D: D A D G) 
NOTE: if you play this 4 string, move all the E string notes up 2 frets 
 
 
   INTRO x2  (0:15) 
G|----------------------------| 
D|----------------------------| 
A|----------------------------| 
E|--10--10--7--7--0--0--2--2--| 
D|----------------------------| 
 
   PRE VERSE x2  (0:26) 
G|-------------------------------------------| 
D|-------------------------------------------| 
A|-------------------------------------------| 
E|--10--10-(8)-10--7--7-5p2--0--0----0--0-5--| 
D|---------------------------------0---------| 
 
   VERSE  (0:36) 
G|--------------------------------------|-------------------------------| 
D|--------------------------------------|-------------------------------| 
A|--------------------------------------|-------------------------------| 
E|-10-10-10--10--10-10--10-10-10--10-10-|-7-7-7--7-7--7-7-7-7-7--7--7-7-| 
D|--------------------------------------|-------------------------------| 
                                          1 + 2  3 +  + 1 + 2 +  3  4 + 
   VERSE Continued  (0:41) 
G|--------------------------------------|---------------------------------| 
D|--------------------------------------|---------------------------------| 
A|--------------------------------------|10-10-10--10--10-10--10-10-10--10| 
E|-10-10-10--10--10-10--10-10-10--10-10-|---------------------------------| 
D|--------------------------------------|---------------------------------| 
 
   PRE Chorus  (0:47) 
G|----------------------------------------------------------| 
D|----------------------------------------------------------| 
A|----------------------------------------------------------| 
E|--7-7-7h10--7--5h8-5h8--(7)-4-4-4-44--44-4-4-4--0h3--3-3--| 
D|----------------------------------------------------------| 
 
   PRE Chorus Continued  (0:53) 
G|----------------------------------------------| 
D|----------------------------------------------| 
A|----------------------------------------------| 
E|---------0-----7-7---0-0---0-0---22--2--2--0--| 
D|--0-0--0--00--0-0-------(0)-------------------| 
 
   Chorus  (1:00) 
G|---------------------------|---------------------------| 
D|---------------------------|---------------------------| 
A|---------------------------|---------------------------| 
E|--10--10--7--7--0--0--2--2-|-10--10--7--7--0--0--2--2--| 
D|---------------------------|---------------------------| 
 
Repeat Pre Verse  (1:12) 
 
   SOLO x2  (1:27) 
G|-------------------------------------------------------------------| 
D|-------------------------------------------------------------------| 
A|-------------------------------------------------------------------| 
E|--7-7-7-7-7-7-7-7-7-7-7-7-7-7-7-7-5-5-5-5-5-5-5-5-5-5-5-5-5-5-5-5--| 
D|-------------------------------------------------------------------| 
 
   SOLO Continued  (1:32) 
G|---------------------------------------------------| 
D|---------------------------------------------------| 
A|---------------------------------------------------| 
E|--10-10-10-10-10-10-10-10-10-10-10-10-10-10-10-10--| 
D|---------------------------------------------------| 
 
   SOLO Continued  (1:35) 
G|---------------------------------------------------| 
D|---------------------------------------------------| 
A|---------------------------------------------------| 
E|--12-12-12-12-12-12-12-12-12-12-12-12-12-12-12-12--| 
D|---------------------------------------------------| 
 
   INTERLUDE  (1:49) 
G|-----------------------------------------------------------------| 
D|--12--------14------12-------------------------------------------| 
A|-------12-------10------12---------------------------------------| 
E|----------------------------14---8---5---4/12---10---5---3---2---| 
D|-----------------------------------------------------------------| 
 
Repeat Chorus  (2:10) 
Repeat Pre Verse  (2:20) 
Repeat Chorus  (2:31) 
Repeat Chorus x2  (3:03) 
less
plus
Add to Songbook Print Version How to play lesson Submit videolesson
Click the best TAGS for this song:
None of them
Contributor: pangfern Correct

If you can not find the chords or tabs you want, look at our partner E-chords. If you are a premium member, you have total access to our video lessons.

If you find a wrong Bad To Me from T.A.T.U., click the correct button above.

login/signup
my songbooks
my recent views
my submits