tools Ultimate Tabs

Start AutoScroll Font Size Down Font Size Up

Find us on Facebook

chords tabs
bass
ukulele keyboards
drums
flute
harmonica
guitar pro
video
Ultimate-Tabs

Sparks Fly

The o's on the edge of the tab means to play it that line twice.

0:00
G|-----------------------------------------------------------------------|
D|-----------------------------------------------------------------------|
A|-5-5-5-5-5-5-5-5-----------------8-8-8-8-8-8-8-8x----------------------|
E|-----------------6-6-6-6-6-6-6-6---------------------8-8-8-8-8-8/15\-\-|

0:08
G|-----------------------------------------------------------------|
D|-----------------------------------------------------------------|
A|-5-5-5-5-5-5-5-5-----------------8-8-8-8-8-8-8-8-----------------|
E|-----------------6-6-6-6-6-6-6-6-----------------8-8-8-8-8-8-8-8-|

0:16
G|----------------------------------------------------------------------|
D|o--------------------------------------------------------------------o|
A|o----------------------------------8---8---8---8\------------3--3----o|
E|----10--10--10--10--6---6---6---6-------------------8---8\--3-3--3----|

0:33
G|--------------------------------------------------------------|
D|--------------------------------------------------------------|
A|---------------------------------8---8---8~--8\--5-5-555-5--5-|
E|-6---6---6---6---8---8---88~-8----------8---------------------|

0:41
G|-----------------------------------------------------------------|
D|-----------------------------------------------------------------|
A|-----------------------------------------------------------------|
E|-6-6-6-6-6-6-6-6-6-6-6-6-6-6-6-6-8-8-8-8-8-8-8-8-8\--------------|

0:50
G|------------------------------------------------------------------|
D|o-----------------------------------------------------------------|
A|o-5-5-5-5-5-5-5-5-----------------8-8-8-8-8-8-8-8-----------------|
E|------------------6-6-6-6-6-6-6-6-----------------8-8-8-8-8-8-3-1-|

G|----------------------------------------------------------------------|
D|---------------------------------------------------------------------o|
A|-5-5-------------1-1-3-3-5-5-3-3-8-8-8-8-8-8-8-8x--------------------o|
E|-----0-0-1-1-5-5-------------------------------------8-8-8-8-8-8-3-1--|

1:23
G|-----------------------------------------------------------------|
D|-----------------------------------------------------------------|
A|-5-5-5-5-5-5-5-5-----------------8-8-8-8-8-8-8-8-----------------|
E|-----------------6-6-6-6-6-6-6-6-----------------8-8-8-8-8-8-8-8-|

1:32
G|----------------------------------------------------------------|
D|----------------------------------------------------------------|
A|--------------------------------8---8---8---8\------------3--3--|
E|-------------------------------------------------8---8\--3-3--3-|

G|----------------------------------------------------------------|
D|----------------------------------------------------------------|
A|--------------------------------8---8---8---8\------------3--3--|
E|-10--10--10--10--6---6---6---6-------------------8---8\--3-3--3-|

1:48
G|--------------------------------------------------------------|
D|--------------------------------------------------------------|
A|---------------------------------8---8---8~--8\--5-5-555-5--5-|
E|-6---6---6---6---8---8---88~-8----------8---------------------|

G|-----------------------------------------------------------------|
D|-----------------------------------------------------------------|
A|-----------------------------------------------------------------|
E|-6-6-6-6-6-6-6-6-6-6-6-6-6-6-6-6-8-8-8-8-8-8-8-8-8-8-8-8\--------|

2:05
G|------------------------------------------------------------------|
D|o-----------------------------------------------------------------|
A|o-5-5-5-5-5-5-5-5-----------------8-8-8-8-8-8-8-8-----------------|
E|------------------6-6-6-6-6-6-6-6-----------------8-8-8-8-8-8-3-1-|

G|----------------------------------------------------------------------|
D|---------------------------------------------------------------------o|
A|-5-5-------------1-1-3-3-5-5-3-3-8-8-8-8-8-8-8-8x--------------------o|
E|-----0-0-1-1-5-5-------------------------------------8-8-8-8-8-8-3-1--|

2:38
G|-----------------------------------------------------------------|
D|-----------------------------------------------------------------|
A|-5-5-5-5-5-5-5-5-----------------8-8-8-8-8-8-8-8-----------------|
E|-----------------6-6-6-6-6-6-6-6-----------------8-8-8-8-8-8-8-8-|

2:47
G|-------------------------------------------------------------------|
D|o-----------------------------------------------------------------o|
A|o-5---5---5---5------------------/8---8---8---8x------------------o|
E|-----------------56---6---6---6---------------------8-8-8-8-8-8-8--|

3:03
G|-----------------------------------------------------------------|
D|-----------------------------------------------------------------|
A|-5-5-5-5-5-5-5-5-----------------8-8-8-8-8-8-8-8-----------------|
E|-----------------6-6-6-6-6-6-6-6-----------------8-8-8-8-8-8-8-8-|

3:12
G|----------------------------------------------------------------|
D|----------------------------------------------------------------|
A|---------------------------------8~-----------------------------|
E|-10~-------------6~------------------------------8~-------------|

G|----------------------------------------------------------------|
D|----------------------------------------------------------------|
A|----------------------------------------------------------------|
E|------------------------------------------------------------/10-|

3:28
G|---------------------------------------------------------------------|
D|---------------------------------------------------------------------|
A|-----7-7-8-8-----1-1-3-3-5-5-3-3-8-8-8-8-8-8-8-8x--------------------|
E|-1010--------5-5---------------------------------------8-8-8-8-8-8-8-|

3:37
G|-----------------------------------------------------------------|
D|-----------------------------------------------------------------|
A|-5-5-5-5-5-5-5-5-----------------8-8-8-8-8-8-8-8-----------------|
E|-----------------6-6-6-6-6-6-6-6-----------------8-8-8-8-8-8-3-1-|

G|-------------------------------------------------------------------|
D|-------------------------------------------------------------------|
A|-5-5-------------1-1-3-3-5-5-3-3-8-8-8-8-8-8-8-8x------------------|
E|-----0-0-1-1-5-5-------------------------------------8-8-8-8-8-8-8-|

3:53
G|-----------------------------------------------------------------|
D|-----------------------------------------------------------------|
A|-5-5-5-5-5-5-5-5-----------------8-8-8-8-8-8-8-8-----------------|
E|-----------------6-6-6-6-6-6-6-6-----------------8-8-8-8-8-8-8-8-|

G|----------------------------------------------------------------------|
D|----------------------------------------------------------------------|
A|-5-5-5-5-5-5-5-5-----------------8-8-8-8-8-8-8-8----------------------|
E|-----------------6-6-6-6-6-6-6-6-----------------8-8-8-8-8-8-8-8-/10~-|

Tabbed By Jack Mills
less
plus
Add to Songbook Print Version How to play lesson Submit videolesson
Click the best TAGS for this song:
None of them
Contributor: Angecody Correct

If you can not find the chords or tabs you want, look at our partner E-chords. If you are a premium member, you have total access to our video lessons.

If you find a wrong Bad To Me from Taylor Swift, click the correct button above.

login/signup
my songbooks
my recent views
my submits