Taylor Swift

Today Was A Fairy Tale chords

Taylor Swift

tools Ultimate Tabs

Start AutoScroll Font Size Down Font Size Up

Find us on Facebook

chords
tabs
bass
ukulele keyboards
drums
flute
harmonica
guitar pro
video
Ultimate-Tabs

Today Was A Fairy Tale

Intro: G C / Em D 

E|---3---3-------------------------------0-3-2-2-| 
A|------------0---2---3---3---2---0--------------| 
D|----------------------------------------------------|         x2 
G|----------------------------------------------------| 
B|----------------------------------------------------| 
E|----------------------------------------------------| 
G C Today was a fairytale Em You were the prince D G I used to be a damsel in distress C Em You took me by the hand and you picked me up at six D Today was a fairytale
  G C / Em D 

E|-----------------------------------------|----------------------------------------------| 
A|-----------------------------------------|----------------------------------------------| 
D|-----------------------------------------|----------------------------------------------| 
g|-------------------------------------2---|----------------------------------------------| 
b|-------------3---1-------------3-------|-------------3---1---------------------------| 
e|---3---2-------------3---2------------|---3---2-------------3---2---7---5---7---|
G C / Em D Today was a fairytale G C Today was a fairytale Em I wore a dress D G You wore a dark grey t-shirt C Em You told me I was pretty when I looked like a mess D Today was a fairytale C Em D C D Time slows down whenever you're around G C Em But can you feel this magic in the air? D G It must have been the way you kissed me C Em Fell in love when I saw you standing there D It must have been the way G C Today was a fairytale Em D It must have been the way G C / Em D Today was a fairytale G C Today was a fairytale Em D G You've got a smile that takes me to another planet C Em Every move you make everything you say is right D Today was a fairytale G C Today was a fairytale Em D G All that I can say is it's getting so much clearer C Em Nothing made sense until the time I saw your face D Today was a fairytale C Em D C D Time slows down whenever you're around Yeah G C Em But can you feel this magic in the air? D G It must have been the way you kissed me C Em Fell in love when I saw you standing there D It must have been the way G C Today was a fairytale Em D It must have been the way G C / Em D Today was a fairytale
E|---------------------------------------------------------------------| 
A|---------------------------------------------------------------------| 
D|---9---10---9---7---9---10---9------9-----------------------| 
g|-----------------------------------------7------7-------------------| 
b|-------------------------------------------------------7---6--------| 
e|----------------------------------------------------------------------|
C Em D C Time slows down whenever you're around Em I can feel my heart D C It's beating in my chest Em Did you feel it? D C D I can't put this down G C / Em D : hasta el final But can you feel this magic in the air? It must have been the way you kissed me Fell in love when I saw you standing there It must have been the way But can you feel this magic in the air? It must have been the way you kissed me Fell in love when I saw you standing there It must have been the way Today was a fairytale It must have been the way Today was a fairytale Ohh... Ohh... Yeah Ohh Ohh G Today was a fairytale
less
plus
Add to Songbook Print Version How to play lesson Submit videolesson
Click the best TAGS for this song:
None of them
Contributor: Munkjamb Correct

If you can not find the chords or tabs you want, look at our partner E-chords. If you are a premium member, you have total access to our video lessons.

If you find a wrong Bad To Me from Taylor Swift, click the correct button above.

login/signup
my songbooks
my recent views
my submits