Tedeschi Trucks Band

Midnight In Harlem bass

Tedeschi Trucks Band

tools Ultimate Tabs

Start AutoScroll Font Size Down Font Size Up

Find us on Facebook

chords
tabs
bass
ukulele keyboards
drums
flute
harmonica
guitar pro
video
Ultimate-Tabs

Midnight In Harlem

A lovely song written by the backing singer...
And the bass play is awesome...
My interpretation here but it fits just right... but place for impro especially for the 
last riff...
So enjoy...

TEDESCHI TRUCKS BAND
Album:  REVELATOR
Tempo: 76 bpm

Intro:
G|-------------------------------|-|
D|-------------------------------|-|
A|----------6-6-5--------6--6-5--|-|
E|-7--7-9-9--------7--7-9--------|-|

G|------------------------------------------------------|
D|------------------------------------------------------|
A|---------6--6-5--------0--07-9-79--0--07-9-79---------|
E|-7--7-9----------5-/-7-------------------------9--7---|

G|----------------------------------------------||----------|
D|----------------------------------------------||-11----9--|
A|---------6--6-5--------0--07-9-79--0--07-9-79-||----11----|
E|-7--7-9----------5-/-7------------------------||----------|


Verse 1: 00:38
G|------------------------------------------------------|
D|---9--------------------------------------------------|
A|---------6--6-5--------0--07-9-79--0--07-9-79---------|
E|------9----------5-/-7-------------------------9--7---|
Well, I came to the city
I was running from the past
G|------------------------------------------------------|
D|------------------------------------------------------|
A|---------6--6-5--------0--07-9-79--0--07-9-79---------|
E|-7--7-9----------5-/-7-------------------------9--7---|
My heart was bleeding
And it hurt my bones to laugh
G|----------------------------------------------||-----------|
D|----------------------------------------------||-9-11---9--|
A|---------6--6-5--------0--07-9-79--0--07-9-79-||------11---|
E|-7--7-9----------5-/-7------------------------||-----------|
Stayed in the city
No exception to the rules, to the rule
G|----------------------------------------------|-|
D|---9------------------------------------------|-|
A|---------6--6-5--------0--07-9-79--0--07-9-79-|-|
E|------9----------5-/-7------------------------|-|
He was born to love me
I was raised to be his fool, his fool

Chorus 1: 01:28
G|-----------------11/9--------------------------|
D|-----7-7/9/7---------11/9/7-----9------97------|
A|-0-7---------0-7------------0-7---9-7----9-79--|
E|-----------------------------------------------|
Walk that line, torn apart
Spend your whole life trying
G|---------------------------------------------------------------|
D|------7--9--------7-7-9-7------9-------------------------------|
A|-0--7--------0--7---------0--7----9--7-----6-5--------6--6-5---|
E|-----------------------------------------9-----7--7-9----------|
Ride that train, free your heart
It's midnight up in Harlem

Interlude: 01;56  - begins with organ playing -
G|----------------------------------------------||----------|
D|----------------------------------------------||-11----9--|
A|---------6--6-5--------0--07-9-79--0--07-9-79-||----11----|
E|-7--7-9----------5-/-7------------------------||----------|

Verse 2: 02:16
G|------------------------------------------------------|
D|---9--------------------------------------------------|
A|---------6--6-5--------0--07-9-79--0--07-9-79---------|
E|------9----------5-/-7-------------------------9--7---|
I went down to the river
And I took a look around
G|------------------------------------------------------|
D|------------------------------------------------------|
A|---------6--6-5--------0--07-9-79--0--07-9-79---------|
E|-7--7-9----------5-/-7-------------------------9--7---|
There were old man's shoes
There were needles on the ground
G|----------------------------------------------||----------|
D|----------------------------------------------||-11----9--|
A|---------6--6-5--------0--07-9-79--0--07-9-79-||----11----|
E|-7--7-9----------5-/-7------------------------||----------|
No more mysteries, baby
No more secrets, no more clues
G|----------------------------------------------||----------|
D|----------------------------------------------||-11--9----|
A|---------6--6-5--------0--07-9-79--0--07-9-79-||----------|
E|------9----------5-/-7------------------------||----------|
The stars are out there
You can almost see the moon

Chorus 2 : 03:06
G|--------------------------|
D|---------9--------7-7/9---|
A|-0--7--9-----0--7---------|
E|--------------------------|
The streets are windy
And the subway's closing down
G|--------------------------|
D|----------9-------7-7/9---|
A|-0--7--9-----0--7---------|
E|--------------------------|
Gonna carry this dream
To the other side of town.

G|-----------------11/9--------------------------|
D|-----7-7/9/7---------11/9/7-----9------97------|
A|-0-7---------0-7------------0-7---9-7----9-79--|
E|-----------------------------------------------|
Walk that line, torn apart
Spend your whole life trying
G|-----------------11/9-----------------||-----------------------|
D|-----7-7/9/7---------11/9/7-----9-----||-----------------------|
A|-0-7---------0-7------------0-7---9-7-||---6-5--------6--6-5---|
E|--------------------------------------||-9-----7--7-9----------|
Ride that train, free your heart
It's midnight up in Harlem


Instrumental ending; 03:46 - begins with guitar playing -
G|------------------|-|
D|------------------|-|
A|----------6--6-5--|-|
E|-7--7-9-9---------|-|

G|------------------------------------------------------|
D|------------------------------------------------------|
A|---------6--6-5--------0--07-9-79--0--07-9-79---------|
E|-7--7-9----------5-/-7-------------------------9--7---|

G|----------------------------------------------||-----------|
D|----------------------------------------------||-9-11---9--|
A|---------6--6-5--------0--07-9-79--0--07-9-79-||------11---| x7
E|-7--7-9----------5-/-7------------------------||-----------|

G|----9-11----9-11--11--9--------------|
D|-9-9-----9-9------------11--9--------|
A|---------------------------------7---|
E|-------------------------------------|

End: 05:53
less
plus
Add to Songbook Print Version How to play lesson Submit videolesson
Click the best TAGS for this song:
None of them
Contributor: hamejose Correct

If you can not find the chords or tabs you want, look at our partner E-chords. If you are a premium member, you have total access to our video lessons.

If you find a wrong Bad To Me from Tedeschi Trucks Band, click the correct button above.

login/signup
my songbooks
my recent views
my submits