The 1975

Robbers bass

The 1975

tools Ultimate Tabs

Start AutoScroll Font Size Down Font Size Up

Find us on Facebook

chords tabs
bass
ukulele keyboards
drums
flute
harmonica
guitar pro
video
Ultimate-Tabs

Robbers

  Intro 0:20
G|-------------------------------------------------------------------|
D|o-----------------------------------------------------------------o|
A|o-7---7-----7-7-\-2---2---4---4---12--12------12------12------12--o|
E|-------------------------------------------------------------------|x2
    1 + 2 + 3 + 4 + 1 + 2 + 3 + 4 + 1 + 2 + 3 + 4 + 1 + 2 + 3 + 4 +

  Verse 0:39
G|------------------------------------------------------------------|
D|------------------------------------------------------------------|
A|-7---7-----7-7-\-2---2---4---4---12--12------12------12------12---|
E|------------------------------------------------------------------|
   1 + 2 + 3 + 4 + 1 + 2 + 3 + 4 + 1 + 2 + 3 + 4 + 1 + 2 + 3 + 4 +

G|------------------------------------------------------------------|
D|------------------------------------------------------------------|
A|-7---7-----7-7-\-2---2---4---4---12--12------12------121212--1212-|
E|------------------------------------------------------------------|
   1 + 2 + 3 + 4 + 1 + 2 + 3 + 4 + 1 + 2 + 3 + 4 + 1 + 2 + 3 + 4 +

G|------------------------------------------------------------------|
D|------------------------------------------------------------------|
A|-7---7-----7-7-\-2---2---4---4---12--12------12------12------12---|
E|------------------------------------------------------------------|
   1 + 2 + 3 + 4 + 1 + 2 + 3 + 4 + 1 + 2 + 3 + 4 + 1 + 2 + 3 + 4 +

G|------------------------------------------------------------------|
D|------------------------------------------------------------------|
A|-7---7-----7-7-\-2---2---4---4---12--12------12------12-----------|
E|------------------------------------------------------------------|
   1 + 2 + 3 + 4 + 1 + 2 + 3 + 4 + 1 + 2 + 3 + 4 + 1 + 2 + 3 + 4 +
  
  Chorus 1:17
G|-------------------------------------------------------------------|
D|o-----------------------------------------------------------------o|
A|o-7---7---7---7-----2-2---2---2---4---4---4---4-----1212--12--12\-o|
E|-------------------------------------------------------------------|x2
    1 + 2 + 3 + 4 + 1 + 2 + 3 + 4 + 1 + 2 + 3 + 4 + 1 + 2 + 3 + 4 +

G|---------------------------------|
D|---------------------------------|
A|---------------------------------|
E|-0-------------------------------|
   1 + 2 + 3 + 4 + 1 + 2 + 3 + 4 +

  Verse 1:41
G|------------------------------------------------------------------|
D|------------------------------------------------------------------|
A|-7---7-----7-7-\-2---2---4---4---12--12------12------12------12---|
E|------------------------------------------------------------------|
   1 + 2 + 3 + 4 + 1 + 2 + 3 + 4 + 1 + 2 + 3 + 4 + 1 + 2 + 3 + 4 +

G|------------------------------------------------------------------|
D|------------------------------------------------------------------|
A|-7---7-----7-7-\-2---2---4---4---12--12------12------121212--1212-|
E|------------------------------------------------------------------|
   1 + 2 + 3 + 4 + 1 + 2 + 3 + 4 + 1 + 2 + 3 + 4 + 1 + 2 + 3 + 4 +

G|------------------------------------------------------------------|
D|------------------------------------------------------------------|
A|-7---7-----7-7-\-2---2---4---4---12--12------12------12------12---|
E|------------------------------------------------------------------|
   1 + 2 + 3 + 4 + 1 + 2 + 3 + 4 + 1 + 2 + 3 + 4 + 1 + 2 + 3 + 4 +

G|------------------------------------------------------------------|
D|------------------------------------------------------------------|
A|-7---7-----7-7-\-2---2---4---4---12--12------12------1212---------|
E|------------------------------------------------------------------|
   1 + 2 + 3 + 4 + 1 + 2 + 3 + 4 + 1 + 2 + 3 + 4 + 1 + 2 + 3 + 4 +
  
  Chorus 2:20
G|-------------------------------------------------------------------|
D|o-----------------------------------------------------------------o|
A|o-4---4---4---4-----1212--12--12--7---7---7---7-----2-2---2---2---o|
E|-------------------------------------------------------------------|x2
    1 + 2 + 3 + 4 + 1 + 2 + 3 + 4 + 1 + 2 + 3 + 4 + 1 + 2 + 3 + 4 +

  Bridge 2:39
G|-----------------------------------------------------------------|
D|-----------------------------------------------------------------|
A|-------------------------------7-0---0---0---0---0---0---0---0---|
E|-2---2---2---2---2---2---2---2-----------------------------------|
   1 + 2 + 3 + 4 + 1 + 2 + 3 + 4 + 1 + 2 + 3 + 4 + 1 + 2 + 3 + 4 +

G|-----------------------------------------------------------------|
D|-----------------------------------------------------------------|
A|-1---1---1---1---1---1---1---1---2---2---2---2---2---2---2---2---|
E|-----------------------------------------------------------------|
   1 + 2 + 3 + 4 + 1 + 2 + 3 + 4 + 1 + 2 + 3 + 4 + 1 + 2 + 3 + 4 +

G|-----------------------------------------------------------------|
D|-----------------------------------------------------------------|
A|-4---------------2---------------0-------------------------------|
E|-----------------------------------------------------------------|
   1 + 2 + 3 + 4 + 1 + 2 + 3 + 4 + 1 + 2 + 3 + 4 + 1 + 2 + 3 + 4 +

  Outro 3:08
G|-------------------------------------------------------------------|
D|o-----------------------------------------------------------------o|
A|o-7---7---7---7---2---2---2---2---4---4---4---4---12--12--12--12--o|
E|-------------------------------------------------------------------|x2
    1 + 2 + 3 + 4 + 1 + 2 + 3 + 4 + 1 + 2 + 3 + 4 + 1 + 2 + 3 + 4 +

G|-------------------------------------------------------------------|
D|o-----------------------------------------------------------------o|
A|o-7---7---7---7---2---2---4---4---12--12----1212----1212----1212--o|
E|-------------------------------------------------------------------|x2
    1 + 2 + 3 + 4 + 1 + 2 + 3 + 4 + 1 + 2 + 3 + 4 + 1 + 2 + 3 + 4 +

G|-------------------------------------------------------------------|
D|o-----------------------------------------------------------------o|
A|o-7---7---7---7---2---2---2---2---4---4---4---4---12--12--12--12--o|
E|-------------------------------------------------------------------|x2
    1 + 2 + 3 + 4 + 1 + 2 + 3 + 4 + 1 + 2 + 3 + 4 + 1 + 2 + 3 + 4 +

G|---------------------------------|
D|---------------------------------|
A|---------------------------------|
E|-0-------------------------------|
   1 + 2 + 3 + 4 + 1 + 2 + 3 + 4 +

Tabbed By Jack Mills
less
plus
Add to Songbook Print Version How to play lesson Submit videolesson
Click the best TAGS for this song:
None of them
Contributor: bob_misf Correct

If you can not find the chords or tabs you want, look at our partner E-chords. If you are a premium member, you have total access to our video lessons.

If you find a wrong Bad To Me from The 1975, click the correct button above.

login/signup
my songbooks
my recent views
my submits