S The Beatles

Another Girl bass

The Beatles

Album:Help!

Year:1965

tools Ultimate Tabs

Start AutoScroll Font Size Down Font Size Up

Find us on Facebook

chords tabs
bass
ukulele keyboards
drums
flute
harmonica
guitar pro video
Ultimate-Tabs

Another Girl

Another Girl 
The Beatles 


Intro: 
G|------ ------ ------ ------|------ ------ ------ ------| 
D|---------------------------|---------------------------| 
A|---------------------------|---------------------------| 
E|---------------------------|---------------------------| 
                                     For    I   have   got 


G|------ ------ ------ ------|------ ------ ------ ------| 
D|7--------------------------|---------------------------| 
A|--------------7------6-----|5--------------------5-----| 
E|---------------------------|--------------5------------| 
                                     an  -  o - ther   girl, 


G|------ ------ ------ ------|------ ------ ------ ------| 
D|7--------------------------|---------------------------| 
A|--------------7------6-----|5--------------------5-----| 
E|---------------------------|--------------5------------| 
                                     an  -  o - ther   girl 

Verse: 
G|------ ------ ------ ------|------ ------ ------ ------| 
D|7--------------------7-----|5--------------------5-----| 
A|--------------7------------|--------------5------------| 
E|---------------------------|---------------------------| 
         You're        me     say    that I've     got 
             ma-    king 

G|------ ------ ------ ------|------ ------ ------ ------| 
D|7--------------------7-----|---------------------------| 
A|--------------7------------|5--------------------5-----| 
E|---------------------------|--------------5------------| 
         no- bo  -  dy but    you, 


G|------ ------ ------ ------|------ ------ ------ ------| 
D|7--------------------7-----|5--------------------5-----| 
A|--------------7------------|--------------5------------| 
E|---------------------------|---------------------------| 
         But as     from   today,    well, I've    got 


G|------ ------ ------ ------|------ ------ ------ ------| 
D|7--------------------7-----|---------------------------| 
A|--------------7------------|5--------------------3-----| 
E|---------------------------|--------------5------------| 
         somebo  -  dy that's new 


G|------ ------ ------ ------|------ ------ ------ ------| 
D|---------------------------|---------------------------| 
A|5--------------------3-----|5--------------------3-----| 
E|--------------5------------|--------------5------------| 
         I   ain't  no     fool,     and I         don't 


G|------ ------ ------ ------|------ ------ ------ ------| 
D|---------------------------|---------------------------| 
A|5--------------------5-----|7--------------------------| 
E|--------------5------------|---------------------------| 
  take   what I     don't     want,  For    I   have   got 


G|------ ------ ------ ------|------ ------ ------ ------| 
D|7--------------------------|---------------------------| 
A|--------------7------6-----|5--------------------5-----| 
E|---------------------------|--------------5------------| 
                                     an  -  o - ther   girl, 


G|------ ------ ------ ------|------ ------ ------ ------| 
D|7--------------------------|---------------------------| 
A|--------------7------6-----|5--------------------5-----| 
E|---------------------------|--------------5------------| 
                                     an  -  o - ther   girl 

Verse: 
G|------ ------ ------ ------|------ ------ ------ ------| 
D|7--------------------7-----|5--------------------5-----| 
A|--------------7------------|--------------5------------| 
E|---------------------------|---------------------------| 
         She's  sweeter than         the girls,    and 
                           all 

G|------ ------ ------ ------|------ ------ ------ ------| 
D|7--------------------7-----|---------------------------| 
A|--------------7------------|5--------------------5-----| 
E|---------------------------|--------------5------------| 
         I   met    quite  few, 
                       a 

G|------ ------ ------ ------|------ ------ ------ ------| 
D|7--------------------7-----|5--------------------5-----| 
A|--------------7------------|--------------5------------| 
E|---------------------------|---------------------------| 
         No- bo  -  dy in  all       the world     can 


G|------ ------ ------ ------|------ ------ ------ ------| 
D|7--------------------7-----|---------------------------| 
A|--------------7------------|5--------------------3-----| 
E|---------------------------|--------------5------------| 
         do  what   she can   do 


G|------ ------ ------ ------|------ ------ ------ ------| 
D|---------------------------|---------------------------| 
A|5--------------------------|5--------------------------| 
E|--------------5------------|--------------5------------| 
         And    so,    I'm    telling    you,      this 


G|------ ------ ------ ------|------ ------ ------ ------| 
D|---------------------------|---------------------------| 
A|5--------------------5-----|7--------------------------| 
E|--------------5------------|---------------------------| 
  time   you'd  better     stop,     For    I   have   got 


G|------ ------ ------ ------|------ ------ ------ ------| 
D|7--------------------------|---------------------------| 
A|--------------7------------|5--------------------5-----| 
E|---------------------------|--------------5------------| 
                                     an  -  o - ther   girl, 


G|------ ------ ------ ------|------ ------ ------ ------| 
D|7--------------------7-----|---------------------------| 
A|--------------7------------|5--------------------------| 
E|---------------------------|--------------5------------| 
                                     An  -  o - ther   girl 

Bridge: 
G|------ ------ ------ ------|------ ------ ------ ------| 
D|---------------------------|---------------------------| 
A|3--------------------3-----|--------------5------------| 
E|--------------3------------|3--------------------3-----| 
                who will      love   me     till the   end, 


G|------ ------ ------ ------|------ ------ ------ ------| 
D|---------------------------|---------------------------| 
A|3--------------------------|--------------5------------| 
E|--------------3------------|3--------------------3-----| 
                                     Through thick 
                                                and 

G|------ ------ ------ ------|------ ------ ------ ------| 
D|---------------------------|---------------------------| 
A|3--------------------------|7--------------------7-----| 
E|--------------3------------|--------------7------------| 
  thin,         she will   al   -    ways   be  my     friend 


G|------ ------ ------ ------|------ ------ ------ ------| 
D|7--------------------7-----|---------------------------| 
A|--------------7------------|7-------------7------------| 
E|---------------------------|---------------------------| 


Verse: 
G|------ ------ ------ ------|------ ------ ------ ------| 
D|7--------------------7-----|5--------------------5-----| 
A|--------------7------------|--------------5------------| 
E|---------------------------|---------------------------| 
         I   don't  want   to say    that I've     been 


G|------ ------ ------ ------|------ ------ ------ ------| 
D|7--------------------7-----|---------------------------| 
A|--------------7------------|5-------------------/7-----| 
E|---------------------------|--------------5------------| 
         un- hap -  py with   you, 


G|------ ------ ------ ------|------ ------ ------ ------| 
D|7--------------------7-----|5--------------------------| 
A|--------------7------------|--------------5------------| 
E|---------------------------|---------------------------| 
         But as     from   today,    well, I've    seen 


G|------ ------ ------ ------|------ ------ ------ ------| 
D|7--------------------7-----|---------------------------| 
A|--------------7------------|5--------------------3-----| 
E|---------------------------|--------------5------------| 
         somebo  -  dy that's new 


G|------ ------ ------ ------|------ ------ ------ ------| 
D|---------------------------|---------------------------| 
A|5--------------------3-----|5--------------------3-----| 
E|--------------5------------|--------------5------------| 
         I   ain't  no     fool,     and I         don't 


G|------ ------ ------ ------|------ ------ ------ ------| 
D|---------------------------|---------------------------| 
A|5--------------------5-----|7--------------------------| 
E|--------------5------------|---------------------------| 
  take   what I     don't     want,  For    I   have   got 


G|------ ------ ------ ------|------ ------ ------ ------| 
D|7--------------------------|---------------------------| 
A|--------------7------6-----|5--------------------5-----| 
E|---------------------------|--------------5------------| 
                                     an  -  o - ther   girl, 


G|------ ------ ------ ------|------ ------ ------ ------| 
D|7--------------------------|---------------------------| 
A|--------------7------6-----|5--------------------5-----| 
E|---------------------------|--------------5------------| 
                                     An  -  o - ther   girl, 

Bridge: 
G|------ ------ ------ ------|------ ------ ------ ------| 
D|---------------------------|---------------------------| 
A|3--------------------3-----|--------------5------------| 
E|--------------3------------|3--------------------3-----| 
                who will      love   me     till the   end, 


G|------ ------ ------ ------|------ ------ ------ ------| 
D|---------------------------|---------------------------| 
A|3--------------------3-----|--------------5------------| 
E|--------------3------------|3--------------------3-----| 
                                     Through thick 
                                                and 

G|------ ------ ------ ------|------ ------ ------ ------| 
D|---------------------------|---------------------------| 
A|3--------------------3-----|7--------------------7-----| 
E|--------------3------------|--------------7------------| 
  thin,         she will   al   -    ways   be  my     friend 


G|------ ------ ------ ------|------ ------ ------ ------| 
D|7--------------------7-----|---------------------------| 
A|--------------7------------|7-------------7------------| 
E|---------------------------|---------------------------| 


Verse: 
G|------ ------ ------ ------|------ ------ ------ ------| 
D|7--------------------7-----|5------5------5------5-----| 
A|--------------7------------|---------------------------| 
E|---------------------------|---------------------------| 
         I   don't  want   to say    that I've     been 


G|------ ------ ------ ------|------ ------ ------ ------| 
D|7--------------------7-----|---------------------------| 
A|--------------7------------|5--------------------5-----| 
E|---------------------------|--------------5------------| 
         un- hap -  py with   you, 


G|------ ------ ------ ------|------ ------ ------ ------| 
D|7--------------------7-----|5--------------------5-----| 
A|--------------7------------|--------------5------------| 
E|---------------------------|---------------------------| 
         But as     from   today,    well, I've    seen 


G|------ ------ ------ ------|------ ------ ------ ------| 
D|7--------------------7-----|---------------------------| 
A|--------------7------------|5--------------------3-----| 
E|---------------------------|--------------5------------| 
         somebo  -  dy that's new 


G|------ ------ ------ ------|------ ------ ------ ------| 
D|---------------------------|---------------------------| 
A|5--------------------3-----|5--------------------3-----| 
E|--------------5------------|--------------5------------| 
         I   ain't  no     fool,     and I         don't 


G|------ ------ ------ ------|------ ------ ------ ------| 
D|---------------------------|---------------------------| 
A|5--------------------5-----|7--------------------------| 
E|--------------5------------|---------------------------| 
  take   what I     don't     want,  For    I   have   got 


G|------ ------ ------ ------|------ ------ ------ ------| 
D|7--------------------------|---------------------------| 
A|--------------7------6-----|5--------------------5-----| 
E|---------------------------|--------------5------------| 
                                     an  -  o - ther   girl, 


G|------ ------ ------ ------|------ ------ ------ ------| 
D|7--------------------7-----|---------------------------| 
A|--------------7------------|5--------------------5-----| 
E|---------------------------|--------------5------------| 
                                     an  -  o - ther   girl, 


G|------ ------ ------ ------|------ ------ ------ ------| 
D|7--------------------7-----|---------------------------| 
A|--------------7------------|5--------------------------| 
E|---------------------------|--------------5------------| 
                                     an  -  o - ther   girl, 


G|------ ------ ------ ------|------ ------ ------ ------| 
D|7--------------------------|---------------------------| 
A|---------------------------|---------------------------| 
E|5--------------------------|---------------------------| 

Escrita por: John Lennon e Paul McCartney  
less
plus
Add to Songbook Print Version How to play lesson Submit videolesson
Click the best TAGS for this song:
None of them
Contributor: Andedas_ Correct

If you can not find the chords or tabs you want, look at our partner E-chords. If you are a premium member, you have total access to our video lessons.

If you find a wrong Bad To Me from The Beatles, click the correct button above.

login/signup
my songbooks
my recent views
my submits