The Beatles

Come Together bass

The Beatles

Album:The Beatles 1

Year:2000

tools Ultimate Tabs

Start AutoScroll Font Size Down Font Size Up

Find us on Facebook

Ultimate-Tabs

Come Together

Shoot me, shoot me, shoot me, shoot me  
 
G-------------10----------|----------------10--------|----------------10----------|----------------10----------G 
D--------------------12\--|-----------------------12\|-----------------------12\--|-----------------------12\--D 
A--5--5--/12--------------|--5--5---10-12------------|--5--5---10-12--------------|--5--5---10-12--------------A 
E-------------------------|--------------------------|----------------------------|----------------------------E 
 
Here come old flat top, he come groovin' up slowly, 
He he got Joo Joo eyeball, he one holy roller, 
He got hair down to his knee. 
Got to be a joker he just do what he please 
 
G-------------10----------G 
D--------------------12\--D 
A--5--5--/12--------------A    4X 
E-------------------------E 
 
G---------------------------G 
D----------10---------------D 
A--0--0----------------12\--A 
E---------------------------E 
 
G---------------------------|-----G 
D----------10---------------|-----D 
A--0--0----------------12\--|-----A 
E---------------------------|--3--E 
 
Refrao 
 
Come together right now, overme  
 
G--------------------------|------------------|----------------10----------G 
D--------------------------|------------------|-----------------------12\--D 
A--2--2--2--2--2--2--0--0--|---------------0--|--5--5---10-12--------------A 
E--------------------------|--3---3--3--3-----|----------------------------E 
 
Shoot me, shoot me, shoot me, shoot me righ 
 
G----------------10----------G 
D-----------------------12\--D 
A--5--5---10-12--------------A    2X 
E----------------------------E 
 
G----------------10-----10-12--10-12--10--G 
D-----------------------------------------D 
A--5--5---10-12---------------------------A 
E-----------------------------------------E 
 
G----------------10----------|----------------10-------10-12--G 
D-----------------------12\--|--------------------------------D 
A--5--5---10-12--------------|--5--5---10-12------------------A 
E----------------------------|--------------------------------E 
 
Teclado solo. 
 
Come. 
 
G--------------------------G 
D--------------------------D 
A--5--5--5--5--5--5--5--5--A    4X 
E--------------------------E 
 
Guitarra Solo. 
 
G--------------------------G 
D--------------------------D 
A--------------------------A    4X 
E--5--5--5--5--5--5--5--5--E 
 
G-------------10----------|-------------10-12-10-12-10-12-10--G 
D--------------------12\--|-----------------------------------D 
A--5--5--/12--------------|--5--5--/12------------------------A 
E-------------------------|-----------------------------------E 
 
Outro. 
 
Shoot me           Oh. 
 
G----------------10----------12--10--12\--|--------------------------G 
D-----------------------------------------|--------------------------D 
A--5--5---10-12---------------------------|--5--5--5--5--5--5--5--5--A 
E-----------------------------------------|--------------------------E 
 
Come together,          yeah. 
 
G-------------------------------G 
D-------------------------------D 
A--4-5--5--5--5--5--5--4-5-4-5--A 
E-------------------------------E 
 
less
plus
Add to Songbook Print Version How to play lesson Submit videolesson
Click the best TAGS for this song:
None of them
Contributor: jorgalan Correct

If you can not find the chords or tabs you want, look at our partner E-chords. If you are a premium member, you have total access to our video lessons.

If you find a wrong Bad To Me from The Beatles, click the correct button above.

login/signup
my songbooks
my recent views
my submits