S The Beatles

Day Tripper (ver. 2) tab

The Beatles

tools Ultimate Tabs

Start AutoScroll Font Size Down Font Size Up

Find us on Facebook

chords
tabs
bass
ukulele
keyboards
drums
flute
harmonica
guitar pro
video
Ultimate-Tabs

Day Tripper (ver. 2)

THE BEATLES_DAY TRIPPER (TABLATURA) 
   
 
  E7 
e|--------------------------------| 
B|--------------------------------| 
G|--------------------------------|  LICK 1 (Intro: 4 vezes) 
D|-------------2-0-----4----0-2---| 
A|-----------2-------2----2-------| 
E|-0-----3-4----------------------| 
 
  A7 
e|--------------------------------| 
B|--------------------------------| 
G|-------------2-0-----4----0-2---|  LICK 2 
D|-----------2-------2----2-------| 
A|-0-----3-4----------------------| 
E|--------------------------------| 
 
  Got a good reason 
e|--------------------------------| 
B|--------------------------------| 
G|--------------------------------| 
D|-------------2-0-----4----0-2---| 
A|-----------2-------2----2-------| 
E|-0-----3-4----------------------| 
 
  For taking the easy way out 
e|--------------------------------| 
B|--------------------------------| 
G|-------------2-0-----4----0-2---| 
D|-----------2-------2----2-------| 
A|-0-----3-4----------------------| 
E|--------------------------------| 
 
Got a good reason 
e|--------------------------------| 
B|--------------------------------| 
G|--------------------------------| 
D|-------------2-0-----4----0-2---| 
A|-----------2-------2----2-------| 
E|-0-----3-4----------------------| 
 
For taking the easy way out 
e|--------------------------------| 
B|--------------------------------| 
G|-------------2-0-----4----0-2---| 
D|-----------2-------2----2-------| 
A|-0-----3-4----------------------| 
E|--------------------------------| 
 
 
           F#5 
She was a day triper 
 
One way ticket, yeah 
          A7   G#7 
It took me so long, 
       C#5               B5 
To find out, and I found out 
 
 Bridge: 
 
  Ahhh...... 
e|------------------------------------------------------------------| 
B|----------------------------10-------------12-~-12~--15p12--15/17-| 
G|--------/9--9-9p7----9b(11)----(11)r9-----------------------------| 
D|-------------------9----------------------------------------------| 
A|------------------------------------------------------------------| 
E|------------------------------------------------------------------| 
 
e|----------------------| 
B|17^19r17-15-12--------| 
G|----------------------| 
D|----------------------| 
A|----------------------| 
E|----------------------| 
 
 
FIM 
 
 
 
less
plus
Add to Songbook Print Version How to play lesson Submit videolesson
Click the best TAGS for this song:
None of them
Contributor: kellblue Correct

If you can not find the chords or tabs you want, look at our partner E-chords. If you are a premium member, you have total access to our video lessons.

If you find a wrong Bad To Me from The Beatles, click the correct button above.

login/signup
my songbooks
my recent views
my submits