S The Beatles

Honey Don't tab

The Beatles

Album:Beatles for Sale

Year:1964

tools Ultimate Tabs

Start AutoScroll Font Size Down Font Size Up

Find us on Facebook

chords
tabs
bass ukulele keyboards
drums
flute
harmonica
guitar pro video
Ultimate-Tabs

Honey Don't

Honey Donít
(Carl Perkins)
Beatles for Sale

Intro:
|----0---0-----0--0-----0---0-------0---|
|-----------------------------------0---|
|--S4--4--4--3--3--3--2--2--2-------1---|
|-----------------------------------2---|
|-----------------------------------2---|
|-----------------------------------0---|

Verse:
E
Well how come you say you will when you wont, 
C
Say you do baby when you donít 
E
Let me know, baby how do you feel?
C
Tell the truth now, is love real?
Chorus:
B7                                      E
But uh huh, yeah, honey donít
E                             
Honey Donít, Honey Donít
A7                   B7                           
Honey Donít. You say you will when you wonít,
A7         E
Uh huh, Honey Donít.

Solo:
|--12-12-12-12--9--9--9--9---12-12-12-12--9--9--9--9-----|
|--12-12-12-12--9--9--9--9---12-12-12-12--9--9--9--9-----|
|--13-13-13-13-10-10-10-10-13-13-13-13--10-10-10-10------|
|--------------------------------------------------------|
|--------------------------------------------------------|
|--------------------------------------------------------|

|--------------------------------------------------------|
|--------------------------------------------------------|
|--------------------------------------------------------|
|----------------2---------------------------------------|
|-----4--2--0-----0---2---2------------------------------|
|--0-----------------0---0-------------------------------|

Lyrics: 
Well how come you say you will when you wont
Say you do baby when you donít 
Let me know honey how do you feel 
Tell the truth now, is love real
But uh huh, well, honey donít.
Well Honey Donít.
Honey Donít. 
Honey Donít. 
I say you will when you wont, uh huh, 
Honey Donít.
Well I love you baby and you outta know. 
I like the way that you wear your clothes. 
Everything about you is so doggone sweet.
You got that sand all over your feet 
But uh huh, Well, Honey Donít.
Honey Donít.
Honey Donít.
Honey Donít
I say you will when you wont, 
Uh huh, Honey Donít. Oh rock on George one time for me.
Well sometimes I love you on a Saturday night. 
Sunday morning you donít look right. 
Youíve been out, painting the town
Uh huh honey been stepping around 
Uh huh, Well, honey donít.
Honey Donít.
Honey Donít.
Honey Donít. 
Honey Donít.
I say you will when you wont,
Uh huh, Honey Donít. 
Oh, rock on George, on time for Ringo one time. 
Well Honey Donít. 
Well Honey Donít,
I say a little Honey Donít. 
I say you will when you wont,
Uh huh, Honey Donít.

This is a very simple song to play. 
Feel free to leave questions and comments.
less
plus
Add to Songbook Print Version How to play lesson Submit videolesson
Click the best TAGS for this song:
None of them
Contributor: migufedo Correct

If you can not find the chords or tabs you want, look at our partner E-chords. If you are a premium member, you have total access to our video lessons.

If you find a wrong Bad To Me from The Beatles, click the correct button above.

login/signup
my songbooks
my recent views
my submits