S The Beatles

I Don't Want To Spoil The Party bass

The Beatles

Album:Beatles for Sale

Year:1964

tools Ultimate Tabs

Start AutoScroll Font Size Down Font Size Up

Find us on Facebook

Ultimate-Tabs

I Don't Want To Spoil The Party

I Don't Want To Spoil The Party
Written by John Lennon and Paul McCartney; released on "Beatles For Sale"

A great song, with a little bit of country flavor...

Intro:
G|------- ------- ------- -------|------- ------- ------- -------|
D|5------------------------------|-------------------------------|
A|-------------------------------|-------------------------------|
E|-------------------------------|-------------------------------|



G|------- ------- ------- -------|------- ------- ------- -------|
D|-------------------------------|-------------------------------|
A|-------------------------------|-------------------------------|
E|-------------------------------|-------------------------------|



G|------- ------- ------- -------|------- ------- ------- -------|
D|-------------------------------|-------------------------------|
A|-------------------------------|-------------------------------|
E|-------------------------------|-------------------------------|



G|------- ------- ------- -------|------- ------- ------- -------|
D|-------------------------------|-------------------------------|
A|----------------5--------------|----------------5--------------|
E|3------------------------------|3------------------------------|
                                                  I       don't

Verse:
G|------- ------- ------- -------|------- ------- ------- -------|
D|-------------------------------|-------------------------------|
A|----------------5--------------|----------------5--------------|
E|3------------------------------|3------------------------------|
  want    to spoil        the par    -    ty      so  I       go


G|------- ------- ------- -------|------- ------- ------- -------|
D|-------------------------------|-------------------------------|
A|----------------5--------------|----------------5--------------|
E|3------------------------------|3------------------------------|
                                                  I       would
                                                              hate

G|------- ------- ------- -------|------- ------- ------- -------|
D|-------------------------------|-------------------------------|
A|----------------5--------------|----------------5--------------|
E|3------------------------------|3------------------------------|
          my      disap   -   point   -   ment            to


G|------- ------- ------- -------|------- ------- ------- -------|
D|-------------------------------|-------------------------------|
A|5------------------------------|5-----------5-----------5------|
E|----------------5--------------|----------------5--------------|
  show                                                    There's


G|------- ------- 4------ -------|4------ ------- ------- -------|
D|2-----------------------2------|----------------4--------------|
A|-------------------------------|-------------------------------|
E|-------------------------------|-------------------------------|
  no- thing   for         me  here                            so
  Ooooooooooooooooooooooooooooooooooooooooooooooooooooooooooooooo

G|------- ------- ------- -------|7------ ------- ------- 7------|
D|-------------------------------|----------------7--------------|
A|----------------7--------------|-------------------------------|
E|5------------------------------|-------------------------------|
  I       will    disap   -   pear                If  she     turns
  ooooooooooooooooooooooooooooooooooooooooooooooo

G|------- ------- 7------ -------|------- ------- ------- -------|
D|5-----------5------------------|3-----------3-----------3------|
A|-------------------------------|----------------3--------------|
E|-------------------------------|-------------------------------|
          up      while I'm   gone        please  let     me  know


G|------- ------- ------- -------|------- ------- ------- -------|
D|5------------------------------|5-----------------------5------|
A|----------------5--------------|----------------5--------------|
E|-------------------------------|-------------------------------|
                                                              I

Verse:
G|------- ------- ------- -------|------- ------- ------- -------|
D|-------------------------------|-------------------------------|
A|----------------5--------------|----------------5--------------|
E|3------------------------------|3------------------------------|
  had a       drink   or      two         and I       don't   care


G|------- ------- ------- -------|------- ------- ------- -------|
D|-------------------------------|-------------------------------|
A|----------------5--------------|----------------5--------------|
E|3------------------------------|3------------------------------|
                                                  There's no


G|------- ------- ------- -------|------- ------- ------- -------|
D|-------------------------------|-------------------------------|
A|----------------5--------------|----------------5--------------|
E|3------------------------------|3-----------------------3------|
  fun in          what I      do          if      she's   not


G|------- ------- ------- -------|------- ------- ------- -------|
D|-------------------------------|-------------------------------|
A|5------------------------------|5-----------5-----------5------|
E|----------------5--------------|----------------5--------------|
  there                                                       I


G|------- ------- 4------ -------|4------ ----4-- ------- -------|
D|2-----------2-----------2------|----------------4--------------|
A|-------------------------------|-------------------------------|
E|-------------------------------|-------------------------------|
  won  -  der what    went    wrong                           I've
  Ooooooooooooooooooooooooooooooooooooooooooooooooooooooooooooooo

G|------- ------- ------- -------|------- ------- ------- -------|
D|7-----------7------------------|-------------------------------|
A|----------------7--------------|5-----------5-----------5------|
E|-------------------------------|----------------5--------------|
  wai  -  ted far     too     long                            I
  ooooooooooooooooooooooooooooooooooooooooooooooo

G|------- ------- 7------ -------|------- ------- ------- -------|
D|5------------------------------|3-----------3-----------3------|
A|-------------------------------|----------------3--------------|
E|-------------------------------|-------------------------------|
  think   I'll    take    a   walk        and     look    for her


G|------- ------- ------- -------|------- ------- ------- -------|
D|5------------------------------|5-----------------------5------|
A|----------------5--------------|----------------5--------------|
E|-------------------------------|-------------------------------|
                                                  Though  to- night

Bridge:
G|------- ------- ------- -------|------- ------- ------- -------|
D|5------------------------------|5------------------------------|
A|----------------5--------------|----------------5--------------|
E|-------------------------------|-------------------------------|
          she's   made    me  sad,


G|------- ------- ------- -------|------- ------- ------- -------|
D|-------------------------------|-------------------------------|
A|7-------7-------7-------7------|-------------------------------|
E|-------------------------------|5-------5-------5-------5------|
  I               still           love            her


G|------- ------- ------- -------|------- ------- ------- -------|
D|-------------------------------|------------------------4------|
A|-------------------------------|5-------5-------7--------------|
E|8-------8-------8-------8------|-------------------------------|
                                                  If  I       find


G|------- ------- ------- -------|------- ------- ------- -------|
D|5------------------------------|5------------------------------|
A|----------------5--------------|----------------5--------------|
E|-------------------------------|-------------------------------|
          her I'll        be  glad,


G|------- ------- ------- -------|------- ------- ------- -------|
D|-------------------------------|7-------7-------7-------7------|
A|7-------7-------7-------7------|-------------------------------|
E|-------------------------------|-------------------------------|
  I               still           love            her


G|------- ------- ------- -------|------- ------- ------- -------|
D|-------------------------------|------------------------4------|
A|-------------------------------|5-------5-------7--------------|
E|8-------8-------8-------8------|-------------------------------|
                                                  I       don't

Verse:
G|------- ------- ------- -------|------- ------- ------- -------|
D|5------------------------------|5------------------------------|
A|----------------5--------------|----------------5--------------|
E|-------------------------------|-------------------------------|
  want    to spoil        the par    -    ty      so  I       go


G|------- ------- ------- -------|------- ------- ------- -------|
D|5------------------------------|5-----------------------4------|
A|----------------5--------------|----------------5--------------|
E|-------------------------------|-------------------------------|
                                                  I       would
                                                              hate

G|------- ------- ------- -------|------- ------- ------- -------|
D|5------------------------------|5------------------------------|
A|----------------5--------------|----------------5--------------|
E|-------------------------------|-------------------------------|
          my      disap   -   point   -   ment            to


G|------- ------- ------- -------|------- ------- ------- -------|
D|-------------------------------|-------------------------------|
A|5-----------5------------------|5-----------5-----------5------|
E|----------------5--------------|----------------5--------------|
  show                                                    There's


G|------- ------- ------- -------|4------ ----4-- ------- -------|
D|2-----------2-----------2------|----------------4--------------|
A|----------------2--------------|-------------------------------|
E|-------------------------------|-------------------------------|
  no- thing   for         me  here                            so
  Ooooooooooooooooooooooooooooooooooooooooooooooooooooooooooooooo

G|------- ------- ------- -------|------- ------- ------- -------|
D|7-----------7------------------|-------------------------------|
A|----------------7-------6------|5-----------5-----------5------|
E|-------------------------------|----------------5--------------|
  I       will    disap   -   pear                If  she     turns
  ooooooooooooooooooooooooooooooooooooooooooooooo

G|------- ------- ------- -------|------- ------- ------- -------|
D|5------------------------------|3-----------------------3------|
A|----------------5--------------|----------------3--------------|
E|-------------------------------|-------------------------------|
          up      while I'm   gone        please  let     me  know


G|------- ------- ------- -------|------- ------- ------- -------|
D|5-----------5------------------|5-----------------------4------|
A|----------------5--------------|--------5-------7--------------|
E|-------------------------------|-------------------------------|


Verse (solo):
G|------- ------- ------- -------|------- ------- ------- -------|
D|5------------------------------|5-----------------------4------|
A|----------------5--------------|----------------5--------------|
E|-------------------------------|-------------------------------|



G|------- ------- ------- -------|------- ------- ------- -------|
D|5------------------------------|5-----------------------4------|
A|----------------5--------------|--------5-------7--------------|
E|-------------------------------|-------------------------------|



G|------- ------- ------- -------|------- ------- ------- -------|
D|5------------------------------|5-------4----------------------|
A|----------------5--------------|----------------7-------7------|
E|-------------------------------|-------------------------------|



G|------- ------- ------- -------|------- ------- ------- -------|
D|----------------7--------------|----------------7--------------|
A|5------------------------------|5-----------5-----------5------|
E|-------------------------------|-------------------------------|



G|------- ------- ------- -------|4------ ------- ------- 4------|
D|2-----------------------2------|----------------4--------------|
A|----------------2--------------|-------------------------------|
E|-------------------------------|-------------------------------|



G|------- ------- ------- -------|------- ------- ------- -------|
D|7-----------------------7------|-------------------------------|
A|----------------7--------------|5-------3-------2--------------|
E|-------------------------------|------------------------5------|



G|------- ------- ------- -------|------- ------- ------- -------|
D|5------------------------------|3-----------------------3------|
A|----------------5--------------|----------------3--------------|
E|-------------------------------|-------------------------------|



G|------- ------- ------- -------|------- ------- ------- -------|
D|5------------------------------|5-----------------------4------|
A|----------------5--------------|--------5-------7--------------|
E|-------------------------------|-------------------------------|
                                                  Though  to- night

Bridge:
G|------- ------- ------- -------|------- ------- ------- -------|
D|5------------------------------|5-----------------------5------|
A|----------------5--------------|----------------5--------------|
E|-------------------------------|-------------------------------|
          she's   made    me  sad,


G|------- ------- ------- -------|------- ------- ------- -------|
D|-------------------------------|-------------------------------|
A|7-------7-------7-------7------|-------------------------------|
E|-------------------------------|5-------5-------5-------5------|
  I               still           love            her


G|------- ------- ------- -------|------- ------- ------- -------|
D|-------------------------------|------------------------4------|
A|-------------------------------|5-------5-------7--------------|
E|8-------8-------8-------8------|-------------------------------|
                                                  If  I       find


G|------- ------- ------- -------|------- ------- ------- -------|
D|5------------------------------|5-----------------------5------|
A|----------------5--------------|----------------5--------------|
E|-------------------------------|-------------------------------|
          her I'll        be  glad,


G|------- ------- ------- -------|------- ------- ------- -------|
D|-------------------------------|-------------------------------|
A|7-------7-------7-------7------|-------------------------------|
E|-------------------------------|5-------5-------5-------5------|
  I               still           love            her


G|------- ------- ------- -------|------- ------- ------- -------|
D|-------------------------------|------------------------4------|
A|-------------------------------|5-------5-------7--------------|
E|8-------8-------8-------8------|-------------------------------|
                                                      You know I

Verse:
G|------- ------- ------- -------|------- ------- ------- -------|
D|5------------------------------|5------------------------------|
A|----------------5--------------|----------------5--------------|
E|-------------------------------|-------------------------------|
  had a       drink   or      two         and I       don't   care


G|------- ------- ------- -------|------- ------- ------- -------|
D|5------------------------------|5-----------------------4------|
A|----------------5--------------|--------5-------7--------------|
E|-------------------------------|-------------------------------|
                                                  There's no


G|------- ------- ------- -------|------- ------- ------- -------|
D|5------------------------------|5-----------------------5------|
A|----------------5--------------|----------------5--------------|
E|-------------------------------|-------------------------------|
  fun in          what I      do          if      she's   not


G|------- ------- ------- -------|------- ------- ------- -------|
D|-------------------------------|-------------------------------|
A|5-----------5------------------|5-----------5-----------5------|
E|----------------5--------------|----------------5--------------|
  there                                                       I


G|------- ------- ------- -------|4------ ----4-- ------- -------|
D|2-----------2-----------2------|----------------4--------------|
A|----------------2--------------|-------------------------------|
E|-------------------------------|-------------------------------|
  won  -  der what    went    wrong                           I've
  Ooooooooooooooooooooooooooooooooooooooooooooooooooooooooooooooo

G|------- ------- ------- -------|------- ------- ------- -------|
D|7------------------------------|-------------------------------|
A|----------------7--------------|5-----------------------5------|
E|-------------------------------|----------------5--------------|
  wai  -  ted far     too     long                            I
  ooooooooooooooooooooooooooooooooooooooooooooooo

G|------- ------- ------- -------|------- ------- ------- -------|
D|5-----------5------------------|3-----------3-----------3------|
A|----------------5--------------|----------------3--------------|
E|-------------------------------|-------------------------------|
  think   I'll    take    a   walk        and     look    for her


G|------- ------- ------- -------|------- ------- ------- -------|
D|5-----------5------------------|5-----------------------4------|
A|----------------5--------------|--------5-------7--------------|
E|-------------------------------|-------------------------------|


Outro:
G|------- ------- ------- -------|------- ------- ------- -------|
D|5------------------------------|5-----------------------5------|
A|----------------5--------------|----------------5--------------|
E|-------------------------------|-------------------------------|



G|------- ------- ------- -------|------- ------- ------- -------|
D|-------------------------------|-------------------------------|
A|5---------------------------3--|5------------------------------|
E|----------------5--------------|----------------5--------------|



G|------- ------- ------- -------|------- ------- ------- -------|
D|-------------------------------|-------------------------------|
A|5------------------------------|5-----------------------5------|
E|----------------5--------------|----------------5--------------|



G|------- ------- ------- -------|------- ------- ------- -------|
D|5------------------------------|-------------------------------|
A|-------------------------------|-------------------------------|
E|-------------------------------|-------------------------------|

Please e-mail me for any corrections.
less
plus
Add to Songbook Print Version How to play lesson Submit videolesson
Click the best TAGS for this song:
None of them
Contributor: Dichlamo Correct

If you can not find the chords or tabs you want, look at our partner E-chords. If you are a premium member, you have total access to our video lessons.

If you find a wrong Bad To Me from The Beatles, click the correct button above.

login/signup
my songbooks
my recent views
my submits