S The Beatles

Lady Madonna (ver. 2) bass

The Beatles

tools Ultimate Tabs

Start AutoScroll Font Size Down Font Size Up

Find us on Facebook

chords
tabs
bass
ukulele
keyboards
drums
flute
harmonica
guitar pro
video
Ultimate-Tabs

Lady Madonna (ver. 2)

Intro:
|--4x--|
Verse:
G ----------------|----------------|----------------|------2---------|
D --------------2-|--------------2-|--------------2-|0-0-4---5-5-4-3-|
A ------2-0-0-4---|------2-0-0 4---|------2-0-0-4---|----------------|
E 0-0-4-----------|0-0-4-----------|0-0-4-----------|----------------|
Play the verse 2 times then go to the chorus

Chorus:
G ----------------|-----------------|----------------|----------------|
D ----------------|-----------------|----------------|----------------|
A 5-5-4-3---------|5-5-4-3----------|--------3-4-5-5-|--------3-4-5-5-|
E --------5-5-4-3-|---------5-5-4-3-|3-4-5-5---------|3-4-5-5---------|

G ----------------|-----------------|-----------------|----------------|
D ----------------|-----------------|-----------------|----------------|
A 5-5-4-3---------|5-5-4-3----------|---------5-5-4-3-|5---------------|
E --------5-5-4-3-|---------5-5-4-3-|5-5-4-3----------|----------------|

Go back to the verse and then the chorus again andrepat through the song
 
less
plus
Add to Songbook Print Version How to play lesson Submit videolesson
Click the best TAGS for this song:
None of them
Contributor: Benichoo Correct

If you can not find the chords or tabs you want, look at our partner E-chords. If you are a premium member, you have total access to our video lessons.

If you find a wrong Bad To Me from The Beatles, click the correct button above.

login/signup
my songbooks
my recent views
my submits