The Beatles

Love Me Do tab

The Beatles

Album:The Beatles: 1962-1966

Year:1993

tools Ultimate Tabs

Start AutoScroll Font Size Down Font Size Up

Find us on Facebook

Ultimate-Tabs

Love Me Do

Intro_1: G7                C9                                    G7                                             C9   
e--12h13-11h12-9h10------------|-12h13-13-13-11h12-12-12-9h10------------- 
B-------------------8-8-8-8-8--|------------------------------8-8--8-8-8-- 
G------------------------------|------------------------------------------ 
Intro_2: G7                    C9                              G7 
e--12h13--11h12--9h10---------8-7----------------8-7/3-- 
B----------------------8-8--8-----8-8-8--8-8-8-8-------- 
G------------------------------------------------------- 
 
 G                     C            G                   C 
Love love me do, you know I love you 
     G                C                          (Intro_1:) G7  C            G7               C     
I'll always be true, so pleeeease love me do,    oh-oh love me do 
 
 G                     C            G                   C 
Love love me do, you know I love you 
     G                C                          (Intro_1:) G7  C            G7               C     
I'll always be true, so pleeeease love me do,    oh-oh love me do 
 
    D                             C               G 
   Someone to love, somebody new 
e--5--5---3-2------------------------- 
 
    D                            C                     G 
   Someone to love, someone like you 
e--5---5---3--2------------------------- 
 
 G                     C            G                   C 
Love love me do, you know I love you 
     G                C                          (Intro_1:) G7  C            G7               C     
I'll always be true, so pleeeease love me do,    oh-oh love me do 
     D7               C          G      D7               C          G                                 Gsus G                      D7  
e--5-5-3-2--3-1-0---|-5-5-3-2--3-1-0--|----------------8-7------------- 
B-----------------3-|----------------3|-8-8-8-88-8-8-8-----8-8-88-8-8-- 
G-------------------------------------|-------------------------------- 
 
 G                     C            G                   C 
Love love me do, you know I love you 
     G                C                          (Intro_1:) G7  C            G7               C     
I'll always be true, so pleeeease love me do,    oh-oh love me do 
        G7                C          G7 
Yes, love me do,   oh-oh love me do 
 
     Love love me do, you know I love you – I’ll always be true, so plee-e-e-ease 
e-------------3----------------3----------------3--3--3--3-3--3--  
B---3---3--6------6---3--3--6-------6--3--3--6--------5--3----5--  
G----------7--5-------------7--5-------------7--5--5-------5-----  
D---5---5---------5---5--5----------5--5--5-----------—----------  
 
    Someone to love, somebody new – Someone to love, someone like you 
e----------------3---1------------------------3--1--------------- 
B----------------------3------------------------------3---------- 
G------------------------3\0-----------------------------0------- 
D--7---7--5--4---5---3-2--0-----7--7---5--4---5--3----2--0------- 
 
less
plus
Add to Songbook Print Version How to play lesson Submit videolesson
Click the best TAGS for this song:
None of them
Contributor: bubusupe Correct

If you can not find the chords or tabs you want, look at our partner E-chords. If you are a premium member, you have total access to our video lessons.

If you find a wrong Bad To Me from The Beatles, click the correct button above.

login/signup
my songbooks
my recent views
my submits