S The Beatles

Mr. Moonlight bass

The Beatles

Album:Beatles for Sale

Year:1964

tools Ultimate Tabs

Start AutoScroll Font Size Down Font Size Up

Find us on Facebook

chords tabs
bass
ukulele keyboards
drums
flute
harmonica
guitar pro video
Ultimate-Tabs

Mr. Moonlight

Mr. Moonlight
The Beatles
Written by Roy Lee Johnson; released on "Beatles For Sale" album.

Someone called this one "the worst thing that the group ever recorded". But 
still, it's better than some "good" records by some other bands :-)

Intro:
G|-----------------------------------------------------|
D|-----------------------------------------------------|
A|-----------------------------------------------------|
E|-----------------------------------------------------|
  Mis - ter


G|---------------------------|
D|---------------------------|
A|---------------------------|
E|---------------------------|
  Moonlight!


G|------- ------- ------- -------|------- ------- ------- -------|
D|-------------------------------|-------------------------------|
A|9-----------9------------------|9-----------9------------------|
E|----------------9-------9------|----------------9-------9------|


Verse:
G|------- ------- ------- -------|------- ------- ------- -------|
D|-------------------------------|-------------------------------|
A|9-----------9------------------|9-----------9------------------|
E|----------------9-------9------|----------------9-------9------|
  You  came  to   me                              one  sum - mer


G|------- ------- ------- -------|------- ------- ------- -------|
D|-------------------------------|----------------6-------8------|
A|9-----------9------------------|9-------9----------------------|
E|----------------9-------9------|-------------------------------|
  night,


G|------- ------- ------- -------|------- ------- ------- -------|
D|-------------------------------|-------------------------------|
A|----------------9--------------|----------------9--------------|
E|7------------------------------|7-----------------------7------|
                  And  from  your beam        you made    my


G|------- ------- ------- -------|------- ------- ------- -------|
D|-------------------------------|-------------------------------|
A|9-----------9------------------|9-----------9---9-------8------|
E|----------------9-------9------|-------------------------------|
  dream


G|------- ------- ------- -------|------- ------- ------- -------|
D|----------------8-----------8--|----------------8-----------8--|
A|6-----------6------------------|6-----------6------------------|
E|-------------------------------|-------------------------------|
                  And  from  the  world           you  sent  my


G|------- ------- ------- -------|------- ------- ------- -------|
D|----------------8--------------|-------------------------------|
A|6-----------6------------------|6-----------6---6--------------|
E|----------------------------9--|------------------------9---\--|
  girl,


G|------- ------- ------- -------|------- ------- ------- -------|
D|-------------------------------|-------------------------------|
A|----------------9-----------9--|----------------9--------------|
E|7------------------------------|7-----------7-----------7------|
                  And  from  a -  bove        you     sent us


G|------- ------- ------- -------|------- ------- ------- -------|
D|-------------------------------|----------------6-------8------|
A|9-----------9------------------|9-------9----------------------|
E|----------------9-------9------|-------------------------------|
  love


G|------- ------- ------- -------|------- ------- ------- -------|
D|-------------------------------|-------------------------------|
A|----------------9-----------9--|----------------9--------------|
E|7-----------7------------------|7-----------7-----------7------|
              And now  she's mine,


G|------- ------- ------- -------|------- ------- ------- -------|
D|-------------------------------|----------------8--------------|
A|9-----------9---9--------------|6-----------------------6------|
E|------------------------9------|-------------------------------|
  I                   think   fine,                    Cause we
                          you're

G|------- ------- ------- -------|------- ------- ------- -------|
D|6-------6---------------6------|-------------------------------|
A|----------------6--------------|4------------------------------|
E|-------------------------------|-------------------------------|
  love    you,                                    Mis- ter   Moon-


G|------- ------- ------- -------|------- ------- ------- -------|
D|-------------------------------|-------------------------------|
A|9-----------9------------------|9-----------9------------------|
E|----------------9-------9------|----------------9-------9------|
  light.

Verse:
G|------- ------- ------- -------|------- ------- ------- -------|
D|-------------------------------|-------------------------------|
A|9-----------9------------------|9-----------9------------------|
E|----------------9-------9------|----------------9-------9------|
  Mis- ter   Moonlight,                           come a  -  gain


G|------- ------- ------- -------|------- ------- ------- -------|
D|-------------------------------|-------------------------------|
A|9-----------9------------------|9-----------9------------------|
E|----------------9-------9------|----------------9-------9------|
  please,


G|------- ------- ------- -------|------- ------- ------- -------|
D|-------------------------------|-------------------------------|
A|9-----------9------------------|9-----------9------------------|
E|----------------9-------9------|----------------9-------9------|
  Here I  am      on  my  knees,                  begging if  you


G|------- ------- ------- -------|------- ------- ------- -------|
D|-------------------------------|----------------6-------8------|
A|9-----------9------------------|9-------9----------------------|
E|----------------9-------9------|-------------------------------|
  please.


G|------- ------- ------- -------|------- ------- ------- -------|
D|-------------------------------|-------------------------------|
A|----------------9-------9------|----------------9--------------|
E|7-----------7---------------6--|7-----------7-----------7------|
              And night   don't   my  way,                I'll
                the   you     come

G|------- ------- ------- -------|------- ------- ------- -------|
D|-------------------------------|----------------8--------------|
A|9-----------9-----------9------|6-----------6-----------6------|
E|----------------9--------------|-------------------------------|
          pray and pray for each day,                  Cause we


G|------- ------- ------- -------|------- ------- ------- -------|
D|6-----------6-----------6------|-------------------------------|
A|----------------6--------------|4------------------------------|
E|-------------------------------|-------------------------------|
  love    you,                                    Mis- ter   Moon-


G|------- ------- ------- -------|------- ------- ------- -------|
D|-------------------------------|-------------------------------|
A|9-----------9------------------|9-----------9------------------|
E|----------------9-------9------|----------------9-------9------|
  light.

Verse (half-solo):
G|------- ------- ------- -------|------- ------- ------- -------|
D|-------------------------------|-------------------------------|
A|9-----------9------------------|9-----------9------------------|
E|----------------9-------9------|----------------9-------6------|



G|------- ------- ------- -------|------- ------- ------- -------|
D|-------------------------------|-------------------------------|
A|9-----------9------------------|9-----------9------------------|
E|----------------9-------9------|----------------9-------9------|



G|------- ------- ------- -------|------- ------- ------- -------|
D|-------------------------------|-------------------------------|
A|9-----------9------------------|9-----------9------------------|
E|----------------9-------9------|----------------9-------6------|



G|------- ------- ------- -------|------- ------- ------- -------|
D|-------------------------------|----------------6-------8------|
A|9-----------9------------------|9-------9----------------------|
E|----------------9-------9------|-------------------------------|



G|------- ------- ------- -------|------- ------- ------- -------|
D|-------------------------------|-------------------------------|
A|--------9-------9-------9---9--|----------------9--------------|
E|7-----------7------------------|7-----------7-----------7------|
              And night   don't   my  way,                I'll
                the   you     come

G|------- ------- ------- -------|------- ------- ------- -------|
D|-------------------------------|----------------8--------------|
A|9-----------9-----------9------|6-----------------------6------|
E|----------------9-----------9--|-------------------------------|
          pray and pray for each day,                  Cause we


G|------- ------- ------- -------|------- ------- ------- -------|
D|6-----------6-----------6------|-------------------------------|
A|----------------6--------------|4------------------------------|
E|-------------------------------|-------------------------------|
  love    you,                                    Mis- ter   Moon-


G|------- ------- ------- -------|------- ------- ------- -------|
D|-------------------------------|-------------------------------|
A|9-----------9------------------|9-----------9------------------|
E|----------------9-------9------|----------------9-------9------|
  light.

Verse:
G|------- ------- ------- -------|------- ------- ------- -------|
D|-------------------------------|-------------------------------|
A|9-----------9------------------|9-----------9------------------|
E|----------------9-------9------|----------------9-------9------|
  Mis- ter   Moonlight,                           come a  -  gain


G|------- ------- ------- -------|------- ------- ------- -------|
D|-------------------------------|-------------------------------|
A|9-----------9------------------|9-----------9------------------|
E|----------------9-------9------|----------------9-------9------|
  please,


G|------- ------- ------- -------|------- ------- ------- -------|
D|-------------------------------|-------------------------------|
A|9-----------9------------------|9-----------9------------------|
E|----------------9-------9------|----------------9-------9------|
  Here I  am      on  my  knees,                  begging if  you


G|------- ------- ------- -------|------- ------- ------- -------|
D|-------------------------------|----------------6-------8------|
A|9-------9----------------------|9-------9----------------------|
E|----------------9-------9------|-------------------------------|
  please.


G|------- ------- ------- -------|------- ------- ------- -------|
D|-------------------------------|-------------------------------|
A|----------------9-----------9--|----------------9--------------|
E|7-----------7------------------|7-----------7-----------7---9--|
              And night   don't   my  way,                I'll
                the   you     come

G|------- ------- ------- -------|------- ------- ------- -------|
D|-------------------------------|-------------------------------|
A|9-----------9------------------|----------------13-------------|
E|----------------9-------9---10-|11----------11----------11-----|
          pray and pray for each day,                  Cause we


G|------- ------- ------- -------|------- ------- ------- -------|
D|-------------------------------|-------------------------------|
A|11----------11----------11-----|-------------------------------|
E|----------------11-------------|9------------------------------|
  love    you,                                    Mis- ter   Moon-


G|------- ------- ------- -------|------- ------- ------- -------|
D|-------------------------------|-------------------------------|
A|9-----------9------------------|9-----------9------------------|
E|----------------9-------9------|----------------9-------9------|
  light.                                          Mis- ter   Moon-

Outro:
G|------- ------- ------- -------|------- ------- ------- -------|
D|-------------------------------|-------------------------------|
A|9-----------9------------------|9-----------9------------------|
E|----------------9-------9------|----------------9-------9------|
  light.                                          Mis- ter   Moon-...
repeat and fade...

Please e-mail me for any corrections, or write a comment.
less
plus
Add to Songbook Print Version How to play lesson Submit videolesson
Click the best TAGS for this song:
None of them
Contributor: 1597luca Correct

If you can not find the chords or tabs you want, look at our partner E-chords. If you are a premium member, you have total access to our video lessons.

If you find a wrong Bad To Me from The Beatles, click the correct button above.

login/signup
my songbooks
my recent views
my submits