S The Beatles

Thank You Girl bass

The Beatles

Album:Live at the BBC

Year:1995

tools Ultimate Tabs

Start AutoScroll Font Size Down Font Size Up

Find us on Facebook

chords tabs
bass
ukulele keyboards
drums
flute
harmonica
guitar pro video
Ultimate-Tabs

Thank You Girl

Thank You Girl
The Beatles
Written by John Lennon and Paul McCartney; released on "From Me To You /
Thank You Girl" single.

Funny and simple little song, reminiscent of "I'll Get You". But still,
Ringo's drumming is excellent in the end.

Intro:
G|------- ------- ------- -------|------- ------- ------- -------|
D|-------------------------------|-------------------------------|
A|-------------------------------|-------------------------------|
E|-------------------------------|-------------------------------|



G|------- ------- ------- -------|------- ------- ------- -------|
D|7------------------------------|5------------------------------|
A|----------------7--------------|----------------5--------------|
E|-------------------------------|-------------------------------|
  Oh,                             oh,

Verse:
G|------- ------- ------- -------|------- ------- ------- -------|
D|----------------5--------------|----------------5--------------|
A|5------------------------------|5------------------------------|
E|-------------------------------|-------------------------------|
  you've              been good to me,                you made me


G|------- ------- ------- -------|------- ------- ------- -------|
D|----------------7--------------|----------------5--------------|
A|5------------------------------|5------------------------------|
E|-------------------------------|-------------------------------|
  glad                when I was  blue


G|------- ------- ------- -------|------- ------- ------- -------|
D|----------------5--------------|----------------5--------------|
A|5------------------------------|5------------------------------|
E|-------------------------------|-------------------------------|
  And                 e - ternal- ly                  I'll always


G|------- ------- ------- -------|------- ------- ------- -------|
D|----------------7--------------|----------------7--------------|
A|5------------------------------|5------------------------------|
E|-------------------------------|-------------------------------|
  be                  in  love with   you                     And

Refrain:
G|------- ------- ------- -------|------- ------- ------- -------|
D|5------------------------------|7------------------------------|
A|----------------5--------------|----------------7--------------|
E|-------------------------------|-------------------------------|
  all     I've    got     to      do                      is


G|------- ------- ------- -------|------- ------- ------- -------|
D|5------------------------------|7------------------------------|
A|----------------5--------------|----------------7--------------|
E|-------------------------------|-------------------------------|
  thank you   girl,               thank you   girl

Verse:
G|------- ------- ------- -------|------- ------- ------- -------|
D|----------------5--------------|----------------5--------------|
A|5------------------------------|5------------------------------|
E|-------------------------------|-------------------------------|
  I                   could   the world               a   thing or
                          tell

G|------- ------- ------- -------|------- ------- ------- -------|
D|----------------7--------------|----------------5--------------|
A|5------------------------------|5------------------------------|
E|-------------------------------|-------------------------------|
  two                 a - bout our love


G|------- ------- ------- -------|------- ------- ------- -------|
D|----------------5--------------|----------------5--------------|
A|5------------------------------|5------------------------------|
E|-------------------------------|-------------------------------|
  I                   know, little girl,              on- ly  a


G|------- ------- ------- -------|------- ------- ------- -------|
D|----------------7--------------|----------------7--------------|
A|5------------------------------|5------------------------------|
E|-------------------------------|-------------------------------|
  fool                would   our love                        And
                          doubt
Refrain:
G|------- ------- ------- -------|------- ------- ------- -------|
D|5------------------------------|7------------------------------|
A|----------------5--------------|----------------7--------------|
E|-------------------------------|-------------------------------|
  all     I've    got     to      do                      is


G|------- ------- ------- -------|------- ------- ------- -------|
D|5------------------------------|7------------------------------|
A|----------------5--------------|----------------7--------------|
E|-------------------------------|-------------------------------|
  thank you   girl,               thank you   girl

Bridge:
G|4------ ------- ------- -------|------- ------- ------- -------|
D|----------------4--------------|----------------7--------------|
A|-------------------------------|5------------------------------|
E|-------------------------------|-------------------------------|
  Thank   you     girl    for     lo  -   ving    me      the


G|------- ------- ------- -------|------- ------- ------- -------|
D|7------------------------------|7------------------------------|
A|----------------7--------------|----------------7--------------|
E|-------------------------------|-------------------------------|
  way     that you do
                                  way     that you do

G|------- ------- ------- -------|------- ------- ------- -------|
D|-------------------------------|7-----------7------------------|
A|7---------------7--------------|------------------------7------|
E|-------------------------------|----------------9--------------|
  That's  the     kind    of      love    that    is      too


G|------- ------- ------- -------|------- ------- ------- -------|
D|----------------7--------------|------------4---7-------4------|
A|5---------------------------5--|5---------------------------5--|
E|-------------------------------|-------------------------------|
  good    to  be  true                                        And

Refrain:
G|------- ------- ------- -------|------- ------- ------- -------|
D|5------------------------------|7------------------------------|
A|----------------5--------------|----------------7--------------|
E|-------------------------------|-------------------------------|
  all     I've    got     to      do                      is


G|------- ------- ------- -------|------- ------- ------- -------|
D|5------------------------------|7------------------------------|
A|----------------5--------------|----------------7--------------|
E|-------------------------------|-------------------------------|
  thank you   girl,               thank you   girl

Re-intro:
G|------- ------- ------- -------|------- ------- ------- -------|
D|-------------------------------|-------------------------------|
A|-------------------------------|-------------------------------|
E|-------------------------------|-------------------------------|



G|------- ------- ------- -------|------- ------- ------- -------|
D|7------------------------------|5------------------------------|
A|----------------7--------------|----------------5--------------|
E|-------------------------------|-------------------------------|
  Oh,                             oh,

Verse:
G|------- ------- ------- -------|------- ------- ------- -------|
D|----------------5--------------|----------------5--------------|
A|5------------------------------|5------------------------------|
E|-------------------------------|-------------------------------|
  you've              been good to me,                you made me


G|------- ------- ------- -------|------- ------- ------- -------|
D|----------------7--------------|----------------5--------------|
A|5------------------------------|5------------------------------|
E|-------------------------------|-------------------------------|
  glad                when I was  blue


G|------- ------- ------- -------|------- ------- ------- -------|
D|----------------5--------------|----------------5--------------|
A|5------------------------------|5------------------------------|
E|-------------------------------|-------------------------------|
  And                 e - ternal- ly                  I'll always


G|------- ------- ------- -------|------- ------- ------- -------|
D|----------------7--------------|----------------7--------------|
A|5------------------------------|5------------------------------|
E|-------------------------------|-------------------------------|
  be                  in  love with   you                     And

Refrain:
G|------- ------- ------- -------|------- ------- ------- -------|
D|5------------------------------|7------------------------------|
A|----------------5--------------|----------------7--------------|
E|-------------------------------|-------------------------------|
  all     I've    got     to      do                      is


G|------- ------- ------- -------|------- ------- ------- -------|
D|5------------------------------|7------------------------------|
A|----------------5--------------|----------------7--------------|
E|-------------------------------|-------------------------------|
  thank you   girl,               thank you   girl

Outro:
G|------- ------- ------- -------|------- ------- ------- -------|
D|7------------------------------|-------------------------------|
A|-------------------------------|-------------------------------|
E|-------------------------------|-------------------------------|



G|------- ------- ------- -------|------- ------- ------- -------|
D|7------------------------------|5------------------------------|
A|----------------7--------------|----------------5--------------|
E|-------------------------------|-------------------------------|
  Oh,                             oh,


G|------- ------- ------- -------|------- ------- ------- -------|
D|----------------5--------------|----------------5--------------|
A|5------------------------------|5------------------------------|
E|-------------------------------|-------------------------------|
  oh


G|------- ------- ------- -------|------- ------- ------- -------|
D|7------------------------------|5------------------------------|
A|----------------7--------------|----------------5--------------|
E|-------------------------------|-------------------------------|
  Oh,                             oh,


G|------- ------- ------- -------|------- ------- ------- -------|
D|----------------5--------------|----------------5--------------|
A|5------------------------------|5------------------------------|
E|-------------------------------|-------------------------------|
  oh


G|------- ------- ------- -------|------- ------- ------- -------|
D|7------------------------------|5------------------------------|
A|----------------7--------------|----------------5--------------|
E|-------------------------------|-------------------------------|
  Oh,                             oh,


G|------- ------- ------- -------|------- ------- ------- -------|
D|-------------------------------|-------------------------------|
A|-------------------------------|-------------------------------|
E|-------------------------------|-------------------------------|
(no bass in the very end!)

Please e-mail me for any corrections, or write a comment.
less
plus
Add to Songbook Print Version How to play lesson Submit videolesson
Click the best TAGS for this song:
None of them
Contributor: colljim_ Correct

If you can not find the chords or tabs you want, look at our partner E-chords. If you are a premium member, you have total access to our video lessons.

If you find a wrong Bad To Me from The Beatles, click the correct button above.

login/signup
my songbooks
my recent views
my submits