S The Beatles

The Word tab

The Beatles

Album:Rubber Soul

Year:1965

tools Ultimate Tabs

Start AutoScroll Font Size Down Font Size Up

Find us on Facebook

chords
tabs
bass ukulele keyboards
drums
flute
harmonica
guitar pro video
Ultimate-Tabs

The Word

Solo: 
D7 
love 
  D7                           Cadd9 
E|----------------------------|----------------------------| 
B|----------------------------|----------------------------| 
G|----------------------------|----------------------------| 
D|0----------------------3----|0----------------------3----| 
A|------3-----0-------0-------|------3-----0-------0-------| 
E|-----------------3----------|-----------------3----------| 
  F6                           G7 
E|----------------------------|----------------------------| 
B|----------------------------|----------------------------| 
G|----------------------------|----------------------------| 
D|0----------------------3----|0---------------------------| 
A|------3-----0-------0-------|------3-----0-0-0---0-------| 
E|-----------------3----------|------------------3---3-1---| 
 
LETCHA LETCHA LETCHA 
less
plus
Add to Songbook Print Version How to play lesson Submit videolesson
Click the best TAGS for this song:
None of them
Contributor: ghinshad Correct

If you can not find the chords or tabs you want, look at our partner E-chords. If you are a premium member, you have total access to our video lessons.

If you find a wrong Bad To Me from The Beatles, click the correct button above.

login/signup
my songbooks
my recent views
my submits