S The Beatles

What You're Doing bass

The Beatles

Album:Beatles for Sale

Year:1964

tools Ultimate Tabs

Start AutoScroll Font Size Down Font Size Up

Find us on Facebook

chords tabs
bass
ukulele keyboards
drums
flute
harmonica
guitar pro video
Ultimate-Tabs

What You're Doing

What You're Doing
The Beatles
Written by John Lennon and Paul McCartney; released on album "Beatles For 
Sale"

Good song; I like the intro, the outro and that riff :-)

Intro:
G|------- ------- ------- -------|------- ------- ------- -------|
D|-------------------------------|-------------------------------|
A|-------------------------------|-------------------------------|
E|-------------------------------|-------------------------------|



G|------- ------- ------- -------|------- ------- ------- -------|
D|-------------------------------|-------------------------------|
A|-------------------------------|-------------------------------|
E|-------------------------------|-------------------------------|



G|------- ------- ------- -------|------- ------- ------- -------|
D|-------------------------------|5-----------5---5---5----------|
A|5-----------5---5---5----------|-------------------------------|
E|-------------------------------|-------------------------------|



G|------- ------- ------- -------|------- ------- ------- -------|
D|-------------------------------|5-----------5---5---5----------|
A|5-----------5---5-------5------|-------------------------------|
E|-------------------------------|-------------------------------|


Verse:
G|------- ------- ------- -------|------- ------- ------- -------|
D|-------------------------------|5-----------5---5---5----------|
A|5-----------5---5-------5------|-------------------------------|
E|-------------------------------|-------------------------------|
  Look,                   what    doing,
                              you're

G|------- ------- ------- -------|------- ------- ------- -------|
D|-------------------------------|5-----------5---5---5----------|
A|5-----------5---5---5----------|-------------------------------|
E|-------------------------------|-------------------------------|
  I'm                     feeling blue and    lone -  ly, Would it


G|4------ ----4-- 4------ -------|------- ------- ------- -------|
D|------------------------7------|5-------5---5---5---5---5---5--|
A|-------------------------------|-------------------------------|
E|-------------------------------|-------------------------------|
  be  too     much            to  ask of      you:        what you're
  Ooooooooooooooooooooooooooooooooooooooooooooooooooooooooooooooo

G|------- ------- ------- -------|------- ------- ------- -------|
D|5---5---5---5---5---5---5---5--|-------------------------------|
A|-------------------------------|5-----------5---5---5----------|
E|-------------------------------|-------------------------------|
  doing                   to      me?
  Ooooooooooooooooooooooooooooooo

G|------- ------- ------- -------|
D|5-----------5---5---5----------|
A|-------------------------------|
E|-------------------------------|


Verse:
G|------- ------- ------- -------|------- ------- ------- -------|
D|-------------------------------|5-----------5---5---5-------5--|
A|5-----------5---5---5----------|-------------------------------|
E|-------------------------------|-------------------------------|
  You                     got me  running,


G|------- ------- ------- -------|------- ------- ------- -------|
D|-------------------------------|5-----------5---5---5-------7--|
A|5-----------5---5---5----------|-------------------------------|
E|-------------------------------|-------------------------------|
  and                     there's fun in      it,     Why should it
                              no

G|4------ ----4-- 4---4-- 4------|------- ------- ------- -------|
D|----------------------------7--|5-------5---5---5---5---5------|
A|-------------------------------|-------------------------------|
E|-------------------------------|-------------------------------|
  be  so      much            to  ask of      you:        what you're
  Ooooooooooooooooooooooooooooooooooooooooooooooooooooooooooooooo

G|------- ------- ------- -------|------- ------- ------- -------|
D|5---5---5---5---5---5---5---5--|----------------------------4--|
A|-------------------------------|5-----------5---5---5---7------|
E|-------------------------------|-------------------------------|
  doing                   to      me?
  Ooooooooooooooooooooooooooooooo
Bridge:
G|------- ------- ------- -------|------- ------- ------- -------|
D|5-------5---------------5------|-------------------------------|
A|----------------5--------------|----------------9--------------|
E|-------------------------------|7-------7---------------7------|
       I've  been waiting         here for    you,


G|------- ------- ------- -------|------- ------- ------- -------|
D|5-------5---------------5------|-------------------------------|
A|----------------5---5----------|----------------9--------------|
E|-------------------------------|7-------7---------------7------|
      wondering   what     you're gonna       do,


G|------- ------- ------- -------|------- ------- ------- -------|
D|-------------------------------|----------------------------6--|
A|7-------7----------------------|7-------7---------------7------|
E|----------------7---7----------|----------------7--------------|
          Should  need        a   love    that's          it's
              you                             true,

G|------- ------- ------- -------|------- ------- ------- -------|
D|7------------------------------|-------------------------------|
A|-------------------------------|-------------------------------|
E|-------------------------------|-------------------------------|
  me

Verse:
G|------- ------- ------- -------|------- ------- ------- -------|
D|----------------7---7----------|5-------5-------5---5----------|
A|5-------5----------------------|-------------------------------|
E|-------------------------------|-------------------------------|
  Please,                 stop    lying,
                              your

G|------- ------- ------- -------|------- ------- ------- -------|
D|-------------------------------|5-------5-------5---5----------|
A|5-------5-------5---5----------|-------------------------------|
E|-------------------------------|-------------------------------|
  you                     got me  crying,     girl,   Why should it


G|4------ ----4-- 4---4-- 4------|------- ------- ------- -------|
D|----------------------------7--|5-----------5---5--------------|
A|-------------------------------|-------------------------------|
E|-------------------------------|-------------------------------|
  be  so      much            to  ask of      you:        what you're
  Ooooooooooooooooooooooooooooooooooooooooooooooooooooooooooooooo

G|------- ------- ------- -------|------- ------- ------- -------|
D|5-----------5---5---5---5---5--|-------------------------------|
A|-------------------------------|5-----------5---5---5----------|
E|-------------------------------|-------------------------------|
  doing                   to      me?
  Ooooooooooooooooooooooooooooooo

G|------- ------- ------- -------|
D|5-----------5---5---5----------|
A|-------------------------------|
E|-------------------------------|


Verse (solo):
G|------- ------- ------- -------|------- ------- ------- -------|
D|-------------------------------|5-----------5---5---5----------|
A|5-----------5---5---5----------|-------------------------------|
E|-------------------------------|-------------------------------|



G|------- ------- ------- -------|------- ------- ------- -------|
D|-------------------------------|5-----------5---5---5----------|
A|5-----------5---5---5----------|-------------------------------|
E|-------------------------------|-------------------------------|



G|------- ------- ------- -------|------- ------- ------- -------|
D|------------------------4------|5-----------5---5---5----------|
A|-------------------------------|-------------------------------|
E|7-----------7---7--------------|-------------------------------|



G|------- ------- ------- -------|------- ------- ------- -------|
D|5-----------5---5---5---5------|-------------------------------|
A|-------------------------------|5-----------5---5---5----------|
E|-------------------------------|-------------------------------|


Bridge:
G|------- ------- ------- -------|------- ------- ------- -------|
D|5-------5---------------5------|-------------------------------|
A|----------------5--------------|----------------9--------------|
E|-------------------------------|7-------7---------------7------|
       I've  been waiting         here for    you,


G|------- ------- ------- -------|------- ------- ------- -------|
D|5-------5---------------5------|-------------------------------|
A|----------------5--------------|----------------9--------------|
E|-------------------------------|7-------7---------------7------|
      wondering   what     you're gonna       do,


G|------- ------- ------- -------|------- ------- ------- -------|
D|-------------------------------|-------------------------------|
A|7-------7----------------------|7-------7---------------7------|
E|----------------7---7----------|----------------7--------------|
          Should  need        a   love    that's          it's
              you                             true,

G|------- ------- ------- -------|------- ------- ------- -------|
D|7------------------------------|-------------------------------|
A|-------------------------------|-------------------------------|
E|-------------------------------|-------------------------------|
  me

Verse:
G|------- ------- ------- -------|------- ------- ------- -------|
D|----------------------------4--|5-----------5---5---5----------|
A|5-------5-------5---5---5------|-------------------------------|
E|-------------------------------|-------------------------------|
  Please,                 stop    lying,
                              your

G|------- ------- ------- -------|------- ------- ------- -------|
D|-------------------------------|5-----------5---5---5----------|
A|5-----------5---5---5----------|-------------------------------|
E|-------------------------------|-------------------------------|
  you                     got me  crying,     girl,   Why should it


G|4------ ----4-- 4---4-- 4------|------- ------- ------- -------|
D|----------------------------7--|5-----------5---5--------------|
A|-------------------------------|-------------------------------|
E|-------------------------------|-------------------------------|
  be  so      much            to  ask of      you:        what you're
  Ooooooooooooooooooooooooooooooooooooooooooooooooooooooooooooooo

G|------- ------- ------- -------|------- ------- ------- -------|
D|5-----------5---5---5---5------|-------------------------------|
A|-------------------------------|5-------5---5---5-------5------|
E|-------------------------------|-------------------------------|
  doing                   to      me?                     What you're
  Ooooooooooooooooooooooooooooooo
Outro:
G|------- ------- ------- -------|------- ------- ------- -------|
D|5-----------5---5---5----------|-------------------------------|
A|-------------------------------|5-------5---5---5---5---5------|
E|-------------------------------|-------------------------------|
  doing                   to      me?                     What you're
  Ooooooooooooooooooooooooooooooo

G|------- ------- ------- -------|------- ------- ------- -------|
D|5-----------5---5---5----------|-------------------------------|
A|-------------------------------|5-----------5---5---5---5------|
E|-------------------------------|-------------------------------|
  doing                   to      me?
  Ooooooooooooooooooooooooooooooo

G|------- ------- ------- -------|------- ------- ------- -------|
D|5-----------5---5---5---5------|-------------------------------|
A|-------------------------------|5------------------------------|
E|-------------------------------|-------------------------------|



G|------- ------- ------- -------|------- ------- ------- -------|
D|-------------------------------|7-----------7-----------7------|
A|-------------------------------|-------------------------------|
E|-------------------------------|-------------------------------|



G|------- ------- ------- -------|------- ------- ------- -------|
D|--------7-----------7---5------|-------------------------------|
A|----------------------------7--|5-----------5---5---5----------|
E|-------------------------------|-------------------------------|



G|------- ------- ------- -------|------- ------- ------- -------|
D|5-----------5---5---5---5---5--|-------------------------------|
A|-------------------------------|5-----------5---5---5----------|
E|-------------------------------|-------------------------------|
repeat and fade...

Please e-mail me for any corrections.
less
plus
Add to Songbook Print Version How to play lesson Submit videolesson
Click the best TAGS for this song:
None of them
Contributor: cochouts Correct

If you can not find the chords or tabs you want, look at our partner E-chords. If you are a premium member, you have total access to our video lessons.

If you find a wrong Bad To Me from The Beatles, click the correct button above.

login/signup
my songbooks
my recent views
my submits