S The Beatles

Words Of Love bass

The Beatles

Album:Beatles for Sale

Year:1964

tools Ultimate Tabs

Start AutoScroll Font Size Down Font Size Up

Find us on Facebook

chords tabs
bass
ukulele keyboards
drums
flute
harmonica
guitar pro video
Ultimate-Tabs

Words Of Love

Words Of Love
The Beatles
Written by Buddy Holly; released on "Beatles For Sale" album.

This song's quite simple, only the same three chords repeated. Nice love
song, however, nice duet sung by John and George.

Intro:
G|------- ------- ------- -------|------- ------- ------- -------|
D|7-----------7---7--------------|-------------------------------|
A|-------------------------------|5-----------5---7-------7------|
E|-------------------------------|-------------------------------|



G|------- ------- ------- -------|------- ------- ------- -------|
D|7-----------7---7--------------|-------------------------------|
A|----------------------------4--|5-----------5---7-------7------|
E|-------------------------------|-------------------------------|



G|------- ------- ------- -------|------- ------- ------- -------|
D|7-----------7---7--------------|-------------------------------|
A|-------------------------------|5-----------5---7-------7------|
E|-------------------------------|-------------------------------|



G|------- ------- ------- -------|------- ------- ------- -------|
D|7------------------------------|----------------------------6--|
A|-------------------------------|--------------------7---9------|
E|-------------------------------|-------------------------------|


Verse:
G|------- ------- ------- -------|------- ------- ------- -------|
D|7-----------7-----------7------|-------------------------------|
A|----------------7---7----------|5-----------5---7-----------7--|
E|-------------------------------|-------------------------------|
  Hold    me      close,  and                     tell me how you


G|------- ------- ------- -------|------- ------- ------- -------|
D|7-----------7---------------7--|-------------------------------|
A|----------------7--------------|5-----------5---7-----------7--|
E|-------------------------------|-------------------------------|
      feel                                        Tell me love is


G|------- ------- ------- -------|------- ------- ------- -------|
D|7-----------7-----------7------|-------------------------------|
A|----------------7---7----------|5-----------5---7-----------7--|
E|-------------------------------|-------------------------------|
      real                                        Mmm -   mmm-


G|------- ------- ------- -------|------- ------- ------- -------|
D|7-----------7-----------7------|-------------------------------|
A|----------------7--------------|5-----------5---7-------7------|
E|-------------------------------|-------------------------------|
  mmm             -               mmm     -   mmmmmmmmmmmmmmmm

Verse:
G|------- ------- ------- -------|------- ------- ------- -------|
D|7-----------7-----------7------|-------------------------------|
A|----------------7--------------|5-----------5---7-------7------|
E|-------------------------------|-------------------------------|
  Words   of      love    you,                    whisper soft and


G|------- ------- ------- -------|------- ------- ------- -------|
D|7-----------7-----------7------|-------------------------------|
A|----------------7--------------|5-----------5---7-------7------|
E|-------------------------------|-------------------------------|
      true                                        Darling I   love


G|------- ------- ------- -------|------- ------- ------- -------|
D|7-------7---------------7------|-------------------------------|
A|----------------7--------------|5-----------5---7-------7------|
E|-------------------------------|-------------------------------|
      you                                         Mmm -   mmm-


G|------- ------- ------- -------|------- ------- ------- -------|
D|7-----------7-----------7------|-------------------------------|
A|----------------7--------------|5-----------5---7-------7------|
E|-------------------------------|-------------------------------|
  mmm             -               mmm     -   mmmmmmmmmmmmmmmm-

Break (solo):
G|------- ------- ------- -------|------- ------- ------- -------|
D|7-----------7-----------7------|----------------------------6--|
A|----------------7-----------7--|5-----------5---7---7---9------|
E|-------------------------------|-------------------------------|
  mmm


G|------- ------- ------- -------|------- ------- ------- -------|
D|7-------7---------------7------|------------7------------------|
A|----------------7-----------7--|5---------------7---7-------7--|
E|-------------------------------|-------------------------------|



G|------- ------- ------- -------|------- ------- ------- -------|
D|7-------7---------------7------|----------------------------6--|
A|----------------7--------------|5-----------5---7---7---9------|
E|-------------------------------|-------------------------------|



G|------- ------- ------- -------|------- ------- ------- -------|
D|7------------------------------|----------------------------6--|
A|-------------------------------|--------------------7---9------|
E|-------------------------------|-------------------------------|



G|------- ------- ------- -------|------- ------- ------- -------|
D|7-------7---------------7------|--------4-------------------6--|
A|----------------7---7-------7--|5-----------5---7---7---9------|
E|-------------------------------|-------------------------------|



G|------- ------- ------- -------|------- ------- ------- -------|
D|7-------7---------------7------|------------7---------------6--|
A|----------------7---7-------7--|5-------5-------5/7-7---9------|
E|-------------------------------|-------------------------------|



G|------- ------- ------- -------|------- ------- ------- -------|
D|7-------7---------------7------|--------7---------------6------|
A|----------------7-----------7--|5-----------5---7---7-------7--|
E|-------------------------------|-------------------------------|



G|------- ------- ------- -------|------- ------- ------- -------|
D|7------------------------------|----------------------------6--|
A|-------------------------------|--------------------7---9------|
E|-------------------------------|-------------------------------|


Verse:
G|------- ------- ------- -------|------- ------- ------- -------|
D|7-----------7-----------7------|-------------------------------|
A|----------------7--------------|5-----------5---7-------7------|
E|-------------------------------|-------------------------------|
  Let     me      hear    you say             the words I long to


G|------- ------- ------- -------|------- ------- ------- -------|
D|7-------7---7-----------7---7--|-------------------------------|
A|----------------7---7----------|5-----------5---7-------7------|
E|-------------------------------|-------------------------------|
      hear                                        Darling when you're


G|------- ------- ------- -------|------- ------- ------- -------|
D|7-----------7-----------7------|-------------------------------|
A|----------------7--------------|5-----------5---7-----------7--|
E|-------------------------------|-------------------------------|
      near                                        Mmm -   mmm-


G|------- ------- ------- -------|------- ------- ------- -------|
D|7-----------7-----------7------|----------------------------6--|
A|----------------7--------------|5-----------5---7-------9------|
E|-------------------------------|-------------------------------|
  mmm             -               mmm     -   mmmmmmmmmmmmmmmm

Verse:
G|------- ------- ------- -------|------- ------- ------- -------|
D|7-----------7-----------7------|----------------------------6--|
A|----------------7--------------|5-----------5---7-------9------|
E|-------------------------------|-------------------------------|
  Words   of      love    you,                    whisper soft and


G|------- ------- ------- -------|------- ------- ------- -------|
D|7-------7-------------------7--|----------------------------6--|
A|----------------7--------------|5-----------5---7-------9------|
E|-------------------------------|-------------------------------|
      true                                        Darling I   love


G|------- ------- ------- -------|------- ------- ------- -------|
D|7-----------------------7------|-------------------------------|
A|----------------7--------------|5-----------5---7-------7------|
E|-------------------------------|-------------------------------|
      you                                         Mmm -   mmm-


G|------- ------- ------- -------|------- ------- ------- -------|
D|7-----------7---7-------7------|----------------------------6--|
A|-------------------------------|5-----------5---7-------9------|
E|-------------------------------|-------------------------------|
  mmm             -               mmm     -   mmmmmmmmmmmmmmmm-

Outro:
G|------- ------- ------- -------|------- ------- ------- -------|
D|7-----------7-----------7------|----------------------------6--|
A|----------------7--------------|5-----------5---7-------9------|
E|-------------------------------|-------------------------------|
  mmm                             mmm     -   mmmmmmmmmmmmmmmm-


G|------- ------- ------- -------|------- ------- ------- -------|
D|7-----------7-----------7------|-------------------------------|
A|----------------7--------------|5-----------5---7-------7------|
E|-------------------------------|-------------------------------|
  mmm                             Aaaaaaaaaaaaaaaaaaaaaaaaaaaaaaa


G|------- ------- ------- -------|------- ------- ------- -------|
D|7-----------7-----------7------|-------------------------------|
A|----------------7--------------|5-----------5---7-------7------|
E|-------------------------------|-------------------------------|
  aah                             Aaaaaaaaaaaaaaaaaaaaaaaaaaaaaaa...
Fade...

Please e-mail me for any corrections, or write a comment.
less
plus
Add to Songbook Print Version How to play lesson Submit videolesson
Click the best TAGS for this song:
None of them
Contributor: nomikenn Correct

If you can not find the chords or tabs you want, look at our partner E-chords. If you are a premium member, you have total access to our video lessons.

If you find a wrong Bad To Me from The Beatles, click the correct button above.

login/signup
my songbooks
my recent views
my submits