S The Church

Unguarded Moment tab

The Church

tools Ultimate Tabs

Start AutoScroll Font Size Down Font Size Up

Find us on Facebook

chords
tabs
bass
ukulele
keyboards
drums
flute
harmonica
guitar pro
video
Ultimate-Tabs

Unguarded Moment

you better appriciate this, it took ages 
 
 
Intro: 
------------------------------------------------------3-3--|------ 
------5---3h5---3---5---3---5-------5---3h5---3---3-3------|------ 
----5---5-----5---5---5---5-------5---5-----5---5---0------|--rpt- 
-----------------------------------------------------------|---x2- 
-----------------------------------------------------------|------ 
-----------------------------------------------------------|------ 
 
 
Main Riff: 
------------------------------------------------------3-3-3--|----- 
------5---6-5-----6-5--6-5----------5---6-5-----3-3-3--------|----- 
---/5---5-----5-5-----------------5---5-----5-5-----0--------|-rpt- 
-------------------------------------------------------------|--X2- 
-------------------------------------------------------------|----- 
-------------------------------------------------------------|----- 
                                                               so 
 
Verse: 
(w/parm muting) 
               fill 1        fill 2            fill 3 
---------------------------------------------------------------|------ 
---------------------------------------------------------------|------ 
---------------------------------------------------------------|-rpt-- 
-2-2-2-2-2-2-3-3-3-3-3-3-3-3-2-2-2-2-2-2-2-2-2-----------------|-x1--- 
-3-3-3-3-3-3-3-3-3-3-3-3-3-3-3-3-3-3-3-3-3-3-3-2-2-2-2-2-2-2-2-|------ 
-----------------------------------------------3-3-3-3-3-3-3-3-|------ 
hard,        ..ration     ..crying            etc..etc.. 
 
 
Chorus: Power Chords! 
-----0-0-0-0-0-0-0-0-0-0-0--1-1-1-1--3-3-3-3-3-3------1-1---/3- 
-----0-0-0-0-0-0-0-0-0-0-0--1-1-1-1--5-5-5-5-5-5------1-1---/3- 
-----0-0-0-0-0-0-0-0-0-0-0--2-2-2-2--5-5-5-5-5-5------2-2---/4- 
-----2-2-2-2-2-2-2-2-2-2-2--3-3-3-3--5-5-5-5-5-5------3-3---/5- 
-----2-2-2-2-2-2-2-2-2-2-2--3-3-3-3--3-3-3-3-3-3------3-3---/5- 
----------------------------1-1-1-1-------------------1-1---/3- 
                            They..   crying (changes) moment 
 
VERSE: Same 
Chorus Same 
 
Bridge:                             X2 
-2-0-2-0---1-----1------3-3-3-3---1~-- 
-3-2-3-2-----3-----3----5-5-5-5---3~-- 
-2-2-2-2-------3-----3--5-5-5-5---3~-- 
-0-2-0-2----------------5-5-5-5---3~-- 
---0---0----------------3-3-3-3---1~-- 
-------------------------------------- 
 
 
-2-0-2-0--1-------1-----3-3-3-5~- 
-3-2-3-2----3-------3---5-5-5-5-- 
-2-2-2-2------3-------3-5-5-5-5-- 
-0-2-0-2----------------5-5-5-5-- 
---0---0----------------3-3-3-3-- 
--------------------------------- 
 
During this verse G  (or G2) arpegrates the chords 
 
Then Chorus (except end chord) 
 
Then 
 
                 C 
In an ungaurded moment 
                 F     G 
In an ungaurded moment 
 
Verse Bit: 
C F                C 
   In an ungaurded moment 
F                C (G2 enters here) 
In an ungaurded moment 
 
Fill 1 } 
Fill 2 }With 
Fill 1 }below 
Fill 2 } 
 
F                C 
In an ungaurded moment 
F                C 
In an ungaurded moment 
 
Chords: 
 
C                F      G 
In an ungaurded moment        (In an ungaurded moment) 
C                F      G 
In an ungaurded moment         (In an ungaurded moment) 
 
Into Solo: 
 
Solo: (Very Approx - Based On these Chords) 
 
Play: C\F\G\C\F\G UNDER SOLO 
 
---------------------------------------------------------------------------- 
-------------------------------------------------------------------------5-5 
-5-5-5-5-5-5-5-5-5-5-5-5-5-5-3-3-3-3-3-3-3-3-3-3-3-3-3----------------5-5-5- 
5-5-5-5-5-5-5-5-5-5-5-5-5-3-3-3-3-3-3-3-3-3-3-3-3-3--5-3-5-3---------------- 
----------------------------------------------------------5----------------- 
---------------------------------------------------------- 
 
---/12-13-13-13-13p12-13-12-13-12-13-13-12--/15-----15-15-15-16b17-16b17~ 
---------------------------------------------------------------------------- 
---------------------------------------------------------------------------- 
---------------------------------------------------------------------------- 
---------------------------------------------------------------------------- 
------------------------------------------------------------- 
 
back to main riff to end 
 
finish on: 
 
-1-1-1-3~~~~-- 
-1-1-1-5~~~~-- 
-2-2-2-5~~~~-- 
-3-3-3-5~~~~-- 
-3-3-3-3~~~~-- 
-1-1-1-------- 
 
Chords: well you should know them but... 
F   C   G 
-1---3---3--- 
-1---5---3--- 
-2---5---0--- 
-3---5---0--- 
-3---3---2--- 
-1-------3--- 
 
Fill's: 
 
Fill 1: 
 
-------3~-- 
-----5----- 
---5------- 
-5--------- 
----------- 
----------- 
 
Fill 2: 
 
-------1~-- 
-----1----- 
---2------- 
-3--------- 
----------- 
----------- 
 
Fill 3: 
 
-3-------3------- 
---3---3---3----- 
-----0-------0--- 
----------------- 
----------------- 
----------------- 
 
THAT COMPLETES MY "UNGUARDED MOMENT" TAB. I HOPE YOU CAN PUT IT TO SOME USE, 
PLEASE SEND COMMENTS. 
 
 
 
 
less
plus
Add to Songbook Print Version How to play lesson Submit videolesson
Click the best TAGS for this song:
None of them
Contributor: Okiethed Correct

If you can not find the chords or tabs you want, look at our partner E-chords. If you are a premium member, you have total access to our video lessons.

If you find a wrong Bad To Me from The Church, click the correct button above.

login/signup
my songbooks
my recent views
my submits