The Cranberries

You and Me tab

The Cranberries

Album:Bury the Hatchet

Year:1999

tools Ultimate Tabs

Start AutoScroll Font Size Down Font Size Up

Find us on Facebook

chords
tabs
bass
ukulele
keyboards
drums
flute
harmonica
guitar pro
video
Ultimate-Tabs

You and Me

You and Me 
The Cranberries 
 
 
E-------------------|-8------8-|----------- 
A-6-----6-----7-----|----------|-----6----- 
D-----8-----8-----8-|-----10---|---8-----8- 
G---7---------------|---8------|-7-----7--- 
B---------7-----7---|----------|----------- 
e-------------------|----------|----------- 
 
E-------------------|-8------8-|------------- 
A-6-----6-----7-----|----------|-----6------- 
D-----8-----8-----8-|-----10---|---8--------- 
G---7---------------|---8------|-7-----7h8p7- 
B---------7-----7---|----------|------------- 
 
 
less
plus
Add to Songbook Print Version How to play lesson Submit videolesson
Click the best TAGS for this song:
None of them
Contributor: Sgirj_su Correct

If you can not find the chords or tabs you want, look at our partner E-chords. If you are a premium member, you have total access to our video lessons.

If you find a wrong Bad To Me from The Cranberries, click the correct button above.

login/signup
my songbooks
my recent views
my submits