tools Ultimate Tabs

Start AutoScroll Font Size Down Font Size Up

Find us on Facebook

chords tabs
bass
ukulele keyboards drums
flute
harmonica
guitar pro
video
Ultimate-Tabs

Boys Don't Cry

Intro 
G |-----------------------------------------------------| 
D |-----------------------------------------------------| 
A |---0-----2-----4-----5-----5--4--2-------------------| 
E |-----------------------------------------------------| 
 
Part 2 
G |---------------------------------------------------------------| 
D |---------------------------------------------------------------| 
A |-0-0-0-0-0-0-0-0-2-2-2-2-2-2-2-4-4-4-4-4-4-4-4-5-5-5-5-5--4--2-| 
E |---------------------------------------------------------------| 
 
Part 3 
G |---------------------------------------------------------------| 
D |---------------------------------------------------------------| 
A |-0-0-0-0-0-0-0-0-2-2-2-2-2-2-2-4-4-4-4-4-4-4-4-5-5-5-5-5-5-5-5-| 
E |---------------------------------------------------------------| 
 
Part 4 
G |--------------------------------------------------------------------------------------------------------------| 
D |--------------------------------------------------------------------------------------------------------------| 
A |4-4-4-4-4-4-4-4-2-2-2-2-2-2-2-2-4-4-4-4-4-4-4-2-2-2-2-2-2-2-2-4-4-4-4-4-4-4-4-2-2-2-2-2-2-2-2-4-4-4-4-4-4-4-4-| 
E |--------------------------------------------------------------------------------------------------------------| 
 
 
Bridge 
G |------------------------------------------------------------------------------------------------| 
D |------------------------------------------------------------------------------------------------| 
A |7-7-7-7-7-7-7-7-9-9-9-9-9-9-9-9-7-7-7-7-7-7-7-7-9-9-9-9-9-9-9-9-7-7-7-7-7-7-7-7-9-9-9-9-9-9-9-9-| 
E |------------------------------------------------------------------------------------------------|  
 
G |------------------------| 
D |------------------------| 
A |5-5-5-5-5-5-5-5-7-7-7-7-| 
E |------------------------| 
Ordem da música: 
 
Intro               (1x) 
Part 2		    (3x) 
Part 3              (2x) 
Part 4		    (1x) 
Part 2		    (2x) 
Part 3              (2x) 
Part 4		    (1x) 
Part 2		    (2x) 
Part 3              (2x) 
Bridge              (1x) 
Part 4              (1x) 
Part 2              (3x) 
 
 
less
plus
Add to Songbook Print Version How to play lesson Submit videolesson
Click the best TAGS for this song:
None of them
Contributor: chooblin Correct

If you can not find the chords or tabs you want, look at our partner E-chords. If you are a premium member, you have total access to our video lessons.

If you find a wrong Bad To Me from The Cure, click the correct button above.

login/signup
my songbooks
my recent views
my submits