The Dip

State Line tab

The Dip

chords
tabs
bass
ukulele
keyboards
drums
flute
harmonica
guitar pro
video
Ultimate-Tabs

State Line

Chorus
e|---------------------------------------------------------------------------|
B|---------------------------------------------------------------------------|
G|---------------------------------------------------------------------------|
D|---------------------4-------------------4---------------------------------|
A|----------2--4--4h6-----------2--4--4h6------------------------------------|
E|----2--4----------------2--4-----------------------------------------------|

e|---------------------------------------------------------------------------|
B|---------------------------------------------------------------------------|
G|---------------------------------------------------------------------------|
D|-------4-6--6-4------------------------------------------------------------|
A|--4h6-----------6-4-2---------------2-2---4------4----------4--------------|
E|-----------------------6-7-6-7--2-4-----2----4-6---4h6--4-6----------------|

Ending 2:
e|---------------------------------------------------------------------------|
B|---------------------------------------------------------------------------|
G|---------------------------------------------------------------------------|
D|-------4-6--6-4------------------------------------------------------------|
A|--4h6-----------6-4-2---------------2-2---4--------------------------------|
E|-----------------------6-7-6-7--2-4-----4----------------------------------|


Verse 2

Solo

e|---------------------------------------------------------------------------|
B|--7h9---9-7----------------------------------------------------------------|
G|------------8-6------------------------------------------------------------|
D|----------------9---8h9--8-9-8-9-------4-4---6----------7------------------|
A|----------------------------------4h6------6----4--6h8----8----------------|
E|---------------------------------------------------------------------------|

e|---------------------------------------------------------------------------|
B|------7-9-9-7-9-9-7--------------------------------------------------------|
G|-6h8----------------8-6-----------------4---6------------------------------|
D|------------------------9--8-9-8-9--4h6---6---9--6-------------------------|
A|---------------------------------------------------7-----------------------|
E|---------------------------------------------------------------------------|



************************************

| h  Hammer-on

************************************
less
plus
Add to Songbook Print Version How to play lesson Submit videolesson
Click the best TAGS for this song:
None of them
Contributor: Anonymous Correct

If you can not find the chords or tabs you want, look at our partner E-chords. If you are a premium member, you have total access to our video lessons.

If you find a wrong Bad To Me from The Dip, click the correct button above.

login/signup
my songbooks
my recent views
my submits