The Heavy

Short Change Hero bass

The Heavy

tools Ultimate Tabs

Start AutoScroll Font Size Down Font Size Up

Find us on Facebook

chords
tabs
bass
ukulele keyboards
drums
flute
harmonica
guitar pro
video
Ultimate-Tabs

Short Change Hero

(/) Slide Up  (\) Slide Down  (h) Hammer On  (p) Pull Off  (b) Bend (r) Release (v) Vibrato

First tab, sounds about alright to me but any feedback is welcomed

Intro:

G|--------------------------------------------------------------------------------------|
D|--------------------------------------2-----------------------------------------4--2--|
A|--4-----2--4-----2--4-----2--4--2--4-----2-----2--4--------------4--------2--4--------|
E|-----4--------4--------4--------------------4--------2--0--2--4-----2--4--------------|

Verse 1:

G|-----------------------------------------------------------------------------------|
D|--------------------------------------2--------------------------------------4--2--|
A|--4-----2--4-----2--4-----2--4--2--4-----2-----2--4--------------4-----2--4--------|
E|-----4--------4--------4--------------------4--------2--0--2--4-----4--------------|


G|-----------------------------------------------------------------|
D|--------------4--2--------------1--2-----------------------------|
A|--4-----2--4--------4-----2--4--------2--2--4--------4-----2--4--|
E|-----4-----------------4-----------------------2--0-----4--------|

Chorus:

G|-----------------------------------------------------------------------------|
D|--------------------------------4--2-----------------------------------2--1--|
A|--4-----2--4-----2--4-----2--4--------2--2--4-----------4--------2--4--------|
E|-----4--------4--------4-----------------------2--0--2-----2--4--------------|


G|--------------------------------------------------------------------------|
D|-----------------------------------2--------------------------------------|
A|--4-----2--4-----2--4-----2--4--4-----2--2--4-----------4-----2--4-----2--|
E|-----4--------4--------4-----------------------2--0--2-----4--------4-----|

Nothing played throughout Verse 2

Chorus:

G|-----------------------------------------------------------------------------------|
D|--4--2--------------------------------4--2-----------------------------------2--1--|
A|--------4-----2--4-----2--4-----2--4--------2--2--4-----------4--------2--4--------|
E|-----------4--------4--------4-----------------------2--0--2-----2--4--------------|

G|--------------------------------------------------------------------------|
D|--------------------------------1--2--------------------------------------|
A|--4-----2--4-----2--4-----2--4--------2--2--4-----------4-----2--4-----2--|
E|-----4--------4--------4-----------------------2--0--2-----4--------4-----|


G|--------------------------------------------------------|
D|--------------------------------------------------------|
A|--4-----2--4-----2--4-----2--4--2--9--4-----2--4-----2--|
E|-----4--------4--------4-----------------4--------4-----|

Outro:

G|-----------------------------------------------------------|
D|-----------------------------------------------------------|
A|--4-----2--4-----2--4-----2--4--2-/9--7--4-----2--4-----2--|
E|-----4--------4--------4--------------------4--------4-----|


G|------------------------------------------------------|
D|-----------------------4--2-----2--1------------------|
A|--4-----2--4-----2--4--------4--------2-----2-/9-/14--|
E|-----4--------4--------------------------4------------|
less
plus
Add to Songbook Print Version How to play lesson Submit videolesson
Click the best TAGS for this song:
None of them
Contributor: illoshot Correct

If you can not find the chords or tabs you want, look at our partner E-chords. If you are a premium member, you have total access to our video lessons.

If you find a wrong Bad To Me from The Heavy, click the correct button above.

login/signup
my songbooks
my recent views
my submits