S The Hives

Die All Right (ver. 3) tab

The Hives

tools Ultimate Tabs

Start AutoScroll Font Size Down Font Size Up

Find us on Facebook

chords
tabs
bass
ukulele
keyboards
drums
flute
harmonica
guitar pro
video
Ultimate-Tabs

Die All Right (ver. 3)

 
Standard Tuning: eBGDAE 
 
Guitar 1: Low Bass, High Middle, Low Treble Die All Rightclean) 
Guitar 2: Medium Bass, Medium Middle, Medium Treble (clean) 
 
Intro: Guitars 1 + 2 
Riff 1 
X3 
e|--------------------| 
B|--------------------| 
G|--------------------| 
D|-2-5-7--7-7-9-9-9-9-| 
A|-2-5-7--7-7-9-9-9-9-| 
E|-0-3-5--5-5-7-7-7-7-| 
Riff 2 
X1 
e|-------| 
B|-------| 
G|-------| 
D|-2-5-7-| 
A|-2-5-7-| 
E|-0-3-5-| 
 
Verse: Guitars 1 + 2 
Riff 1 
X5 
e|--------------------| 
B|--------------------| 
G|--------------------| 
D|-2-5-7--7-7-9-9-9-9-| 
A|-2-5-7--7-7-9-9-9-9-| 
E|-0-3-5--5-5-7-7-7-7-| 
Riff 2 
X1 
e|----------------| 
B|----------------| 
G|----------------| 
D|-101010109-9-9-9| 
A|-101010109-9-9-9| 
E|-8-8-8-8-7-7-7-7| 
Riff 1 
X4 
e|--------------------| 
B|--------------------| 
G|--------------------| 
D|-2-5-7--7-7-9-9-9-9-| 
A|-2-5-7--7-7-9-9-9-9-| 
E|-0-3-5--5-5-7-7-7-7-| 
 
Prechorus: Guitars 1 + 2 
Riff 1 
X1 
e|-------------------------| 
B|-------------------------| 
G|-------------------------| 
D|-101010109-9-9-9-9-9-9-9-| 
A|-101010109-9-9-9-9-9-9-9-| 
E|-8-8-8-8-7-7-7-7-7-7-7-7-| 
 
Chorus: Guitars 1 + 2 
Riff 1 
X4 
e|----------------------------|---------------------------| 
B|----------------------------|---------------------------| 
G|-9-9-9-9-9-9-1212-7-7-7-7-7-|---------------------------| 
D|-9-9-9-9-9-9-1212-7-7-7-7-7-|-5-5-5-5-5-5-5-5-7-7-7-7-7-| 
A|-7-7-7-7-7-7-1010-5-5-5-5-5-|-5-3-5-5-5-5-5-5-7-7-7-7-7-| 
E|----------------------------|-3-3-3-3-3-3-3-3-5-5-5-5-5-| 
 
Verse: Guitars 1 + 2 
Riff 1 
X6 
e|--------------------| 
B|--------------------| 
G|--------------------| 
D|-2-5-7--7-7-9-9-9-9-| 
A|-2-5-7--7-7-9-9-9-9-| 
E|-0-3-5--5-5-7-7-7-7-| 
 
Prechorus: Guitars 1 + 2 
Riff 1 
X1 
e|-------------------------| 
B|-------------------------| 
G|-------------------------| 
D|-101010109-9-9-9-9-9-9-9-| 
A|-101010109-9-9-9-9-9-9-9-| 
E|-8-8-8-8-7-7-7-7-7-7-7-7-| 
 
Chorus: Guitars 1 + 2 
Riff 1 
X4 
e|----------------------------|---------------------------| 
B|----------------------------|---------------------------| 
G|-9-9-9-9-9-9-1212-7-7-7-7-7-|---------------------------| 
D|-9-9-9-9-9-9-1212-7-7-7-7-7-|-5-5-5-5-5-5-5-5-7-7-7-7-7-| 
A|-7-7-7-7-7-7-1010-5-5-5-5-5-|-5-3-5-5-5-5-5-5-7-7-7-7-7-| 
E|----------------------------|-3-3-3-3-3-3-3-3-5-5-5-5-5-| 
Riff 2: Guitar 2 plays this while Guitar 1 plays 1st part of Riff 1. 
X1 
e|-------------------------------------------| 
B|-------------------------------------------| 
G|-------------------------------------------| 
D|-12---5-5-5-5-5-5--9-9-9-9-9-9-9-9-9-9-----| 
A|-12---5-5-5-5-3-3--9-9-9-9-9-9-9-9-9-9-----| 
E|-10---3-3-3-3-3-3--7-7-7-7-7-7-7-7-7-7-----| 
 
Bridge: Guitars 1 + 2 
Riff 1 
X1 
e|------------| 
B|------------| 
G|------------| 
D|-2--5--7----| 
A|-2--5--7----| 
E|-0--3--5----| 
Riff 2 
X1 
e|---------------------------------------------------------| 
B|---------------------------------------------------------| 
G|---------------------------------------------------------| 
D|-9-9-9-9-9-9-9-9-7-7-7-7-7-7-7-7-12-12-12-12-12-12-12-12-| 
A|-9-9-9-9-9-9-9-9-7-7-7-7-7-7-7-7-12-12-12-12-12-12-12-12-| 
E|-7-7-7-7-7-7-7-7-5-5-5-5-5-5-5-5-10-10-10-10-10-10-10-10-| 
Riff 3 
X1 
e|-------------------------------------------------------| 
B|-------------------------------------------------------| 
G|-------------------------------------------------------| 
D|-10-10-10-10-10-10-10-10-10-10-10-10-10-10-10-10-10-10-| 
A|-10-10-10-10-10-10-10-10-10-10-10-10-10-10-10-10-10-10-| 
E|-8--8--8--8--8--8--8--8--8--8--8--8--8--8--8--8--8--8--| 
Riff 4: Guitar 1 plays this while guitar 2 waits for bass slide. 
X1 
e|--------------------| 
B|--------------------| 
G|--------------------| 
D|-2-5-7--7-7-9-9-9-9-| 
A|-2-5-7--7-7-9-9-9-9-| 
E|-0-3-5--5-5-7-7-7-7-| 
 
Prechorus: Guitars 1 + 2 
Riff 1 
X1 
e|-------------------------| 
B|-------------------------| 
G|-------------------------| 
D|-101010109-9-9-9-9-9-9-9-| 
A|-101010109-9-9-9-9-9-9-9-| 
E|-8-8-8-8-7-7-7-7-7-7-7-7-| 
 
Chorus: Guitars 1 + 2 
Riff 1 
X4 
e|----------------------------|---------------------------| 
B|----------------------------|---------------------------| 
G|-9-9-9-9-9-9-1212-7-7-7-7-7-|---------------------------| 
D|-9-9-9-9-9-9-1212-7-7-7-7-7-|-5-5-5-5-5-5-5-5-7-7-7-7-7-| 
A|-7-7-7-7-7-7-1010-5-5-5-5-5-|-5-3-5-5-5-5-5-5-7-7-7-7-7-| 
E|----------------------------|-3-3-3-3-3-3-3-3-5-5-5-5-5-| 
 
Outro: Guitars 1 + 2 
Riff 1 
X1 
e|-----------| 
B|-----------| 
G|-----------| 
D|-9~~~~~~-9-| 
A|-9~~~~~~-9-| 
E|-7~~~~~~-7-| 
 
Lyrics: 
 
Verse: 
Hey! I've Got a Message and Tonight I'm gonna send it.  
Yeah! I had a body and men with knifes wh wanted to lend it. 
Sold my body to the company so I got the money now away i go and 
 
Prechorus: 
Say thank you mr.ceo. 
 
Verse: 
Hey! I got some money and tonight i'm gonna spend it. 
Yeah! They gave me Paper and I went ahead and penned it 
 
Prechorus:  
And I say thank you mr.ceo. 
 
Chorus: 
I filled my pockets, and i might aswell (Die!) 
Cause i found the backdoor out of teenage hell (All Right!) 
Filled my account cause i might infact (Die!) 
But i rely on science, yeah to bring me back (All Right!) 
I~~~~~~ I'm gonna die~~~~~~ heavy morals seem so light 
But when it comes to cash i'm gonna die, all right! 
 
Verse: 
Hey! I lost the money and i can't comprehend it 
Yeah! Got a hole in my head gotta gotta mend it. 
Too messed up to sit and settle down  
Too messed up to even mess around. 
 
Prechorus: 
That's why you're smiling mr.ceo. 
 
Chorus: 
I filled my pockets, and i might aswell (Die!) 
Cause i found the backdoor out of teenage hell (All Right!) 
Filled my account cause i might infact (Die!) 
But i rely on science, yeah to bring me back (All Right!) 
I~~~~~ I'm gonna die~~~~~  
 
Bridge: 
But not right now. 
 
Yeah why don't you do the same? 
I got the money now, i can't complain. 
Except the tics won't go away 
oh no, oh no, oh no, OH NO! 
 
And the way i feel tonight 
is gonna make me die all right! 
 
Chorus: 
I filled my pockets, and i might aswell (Die!) 
Cause i found the backdoor out of teenage hell (All Right!) 
Filled my account cause i might infact (Die!) 
But i rely on science, yeah to bring me back (All Right!) 
I~~~~~ I'm gonna die~~~~~ heavy morals seem so light 
But when it comes to cash i'm gonna die, all right! 
 
That's all of it. Feel free to leave comments or email me at [email protected] 
This is my second tab, but it's my  
first complete one. To me this sounds 100% percent perfect, but 
feel free to tell me the way you play it. 
 
 
less
plus
Add to Songbook Print Version How to play lesson Submit videolesson
Click the best TAGS for this song:
None of them
Contributor: megsmarc Correct

If you can not find the chords or tabs you want, look at our partner E-chords. If you are a premium member, you have total access to our video lessons.

If you find a wrong Bad To Me from The Hives, click the correct button above.

login/signup
my songbooks
my recent views
my submits