S The Hives

Hate To Say I Told You So (ver. 2) tab

The Hives

tools Ultimate Tabs

Start AutoScroll Font Size Down Font Size Up

Find us on Facebook

chords
tabs
bass
ukulele
keyboards
drums
flute
harmonica
guitar pro
video
Ultimate-Tabs

Hate To Say I Told You So (ver. 2)

 
its a cool song , and fun to play. 
 
Intro/Verse 
 
e|-----------------------------------------------------| 
B|-----------------------------------------------------| 
G|--7-7-x-5-5-5-5--10-10-10-x-3-3-3-3-----------------| 
D|--7-7-x-5-5-5-5--10-10-10-x-3-3-3-3-----------------|     8x 
A|--5-5-x-3-3-3-3--8--8--8--x-1-1-1-1-----------------| 
E|-----------------------------------------------------| 
 
:No Guitar at 28 seconds in: 
 
:35 seconds in it continues 
 
e|-----------------------------------------------------| 
B|-----------------------------------------------------| 
G|--7-7-x-5-5-5-5--10-10-10-x-3-3-3-3-----------------| 
D|--7-7-x-5-5-5-5--10-10-10-x-3-3-3-3-----------------|   8x 
A|--5-5-x-3-3-3-3--8--8--8--x-1-1-1-1-----------------| 
E|-----------------------------------------------------| 
 
:then 
 
e|-----------------------------------------------------| 
B|-----------------------------------------------------| 
G|--7-7-7-7-7-7-7-7-7-7--------------------------------| 
D|--7-7-7-7-7-7-7-7-7-7--------------------------------| 
A|--5-5-5-5-5-5-5-5-5-5--------------------------------| 
E|-----------------------------------------------------| 
 
e|-----------------------------------------------------| 
B|-----------------------------------------------------| 
G|--7-7-x-5-5-5-5--10-10-10-x-3-3-3-3-----------------| 
D|--7-7-x-5-5-5-5--10-10-10-x-3-3-3-3-----------------|   2x 
A|--5-5-x-3-3-3-3--8--8--8--x-1-1-1-1-----------------| 
E|-----------------------------------------------------| 
 
 
e|-----------------------------------------------------| 
B|-----------------------------------------------------| 
G|--7-7-7-7-7-7-7-7-7-7--------------------------------| 
D|--7-7-7-7-7-7-7-7-7-7--------------------------------| 
A|--5-5-5-5-5-5-5-5-5-5--------------------------------| 
E|-----------------------------------------------------| 
 
e|-----------------------------------------------------| 
B|-----------------------------------------------------| 
G|--7-7-7-7-7------------------------------------------| 
D|--7-7-7-7-7------------------------------------------| 
A|--5-5-5-5-5------------------------------------------| 
E|-----------------------------------------------------| 
 
e|-----------------------------------------------------| 
B|-----------------------------------------------------| 
G|--7-7-x-5-5-5-5--10-10-10-x-3-3-3-3-----------------| 
D|--7-7-x-5-5-5-5--10-10-10-x-3-3-3-3-----------------|    8x 
A|--5-5-x-3-3-3-3--8--8--8--x-1-1-1-1-----------------| 
E|-----------------------------------------------------| 
 
 
e|-----------------------------------------------------| 
B|-----------------------------------------------------| 
G|--7-7-7-7-7-7-7-7-7-7--------------------------------| 
D|--7-7-7-7-7-7-7-7-7-7--------------------------------| 
A|--5-5-5-5-5-5-5-5-5-5--------------------------------| 
E|-----------------------------------------------------| 
 
e|-----------------------------------------------------| 
B|-----------------------------------------------------| 
G|--7-7-x-5-5-5-5--10-10-10-x-3-3-3-3-----------------| 
D|--7-7-x-5-5-5-5--10-10-10-x-3-3-3-3-----------------|   2x 
A|--5-5-x-3-3-3-3--8--8--8--x-1-1-1-1-----------------| 
E|-----------------------------------------------------| 
 
 
e|-----------------------------------------------------| 
B|-----------------------------------------------------| 
G|--7-7-7-7-7-7-7-7-7-7--------------------------------| 
D|--7-7-7-7-7-7-7-7-7-7--------------------------------| 
A|--5-5-5-5-5-5-5-5-5-5--------------------------------| 
E|-----------------------------------------------------| 
 
:Bass Solo 2:06: 
 
:Guitar 2:35: 
 
e|-----------------------------------------------------| 
B|-----------------------------------------------------| 
G|--7-7-7-7-7------------------------------------------| 
D|--7-7-7-7-7------------------------------------------| 
A|--5-5-5-5-5------------------------------------------| 
E|-----------------------------------------------------| 
 
e|-----------------------------------------------------| 
B|-----------------------------------------------------| 
G|--7-7-x-5-5-5-5--10-10-10-x-3-3-3-3-----------------| 
D|--7-7-x-5-5-5-5--10-10-10-x-3-3-3-3-----------------|    9x 
A|--5-5-x-3-3-3-3--8--8--8--x-1-1-1-1-----------------| 
E|-----------------------------------------------------| 
 
 
:Lyrics: 
 
Do what I want cause I can and if I don't - because I wanna 
Be ignored by the stiff and the bored - because I'm gonna.  
Spit and retrieve cause I give and receive - because I wanna  
Gonna get through your head what the mysterious man said - because I'm gonna.  
Hate to say I told you so.  Alright come on 
I do believe I told you so.  
Now it's all out and you knew  
Cause I wanted to.  
Turn my back on the rot that's been planning the plot - because I'm gonna.  
No need for me to wait - because I wanna.  
No need two, three too late - bacause I'm gonna.  
Hate to say I told you so.  Alright come on 
I do believe I told you so. 
 
 
less
plus
Add to Songbook Print Version How to play lesson Submit videolesson
Click the best TAGS for this song:
None of them
Contributor: DAMIMJ23 Correct

If you can not find the chords or tabs you want, look at our partner E-chords. If you are a premium member, you have total access to our video lessons.

If you find a wrong Bad To Me from The Hives, click the correct button above.

login/signup
my songbooks
my recent views
my submits