S The Hives

Theme From tab

The Hives

tools Ultimate Tabs

Start AutoScroll Font Size Down Font Size Up

Find us on Facebook

chords
tabs
bass
ukulele
keyboards
drums
flute
harmonica
guitar pro
video
Ultimate-Tabs

Theme From

 
repeat 2 times:(let ring) 
E||-----------------------------------------------------|| 
B||-----------------------------------------------------|| 
G||--2--10----------------------------------------------|| 
D||--2--10----------------------------------------------|| 
A||--0--8------------------------------------------------| 
E||------------------------------------------------------| 
 
Verse: (not correct strum pattern) 
E||--------------------------------------------------| 
B||--------------------------------------------------| 
G||-2-2-2-2-2---10-10-10-10-----9--------------------| 
D||-2-2-2-2-2---10-10-10-10-10--9--10--9-------------| 
A||-0-0-0-0-0---8--8--8--8--10--7--10--9-------------- 
E||-------------------------8------8---7-------------| 
 
Chorus:(not correct strum pattern) 
E||-----------------------------| 
B||-----------------------------| 
G||--7-7-7-7---9-9-9-9----------| 
D||--7-7-7-7---9-9-9-9---7-7-7-7| 
A||--5-5-5-5---7-7-7-7---7-7-7-7| 
E||----------------------5-5-5-5| 
Pause 
            Let Ring 
E||---------------------------------------------------------|| 
B||---------------------------------------------------------|| 
G||--2--10--2--10--2-----------------2----------------------|| 
D||--2--10--2--10--2--3-----2--------2--3-----2-------------|| 
A||--0--8---0--8---0--3---3---3--2---0--3---3---3--2---------| 
E||-------------------1-----------------1--------------------| 
 
Then Go back to 
Chorus:(not correct strum pattern) 
E||-----------------------------| 
B||-----------------------------| 
G||--7-7-7-7---9-9-9-9----------| 
D||--7-7-7-7---9-9-9-9---7-7-7-7| 
A||--5-5-5-5---7-7-7-7---7-7-7-7| 
E||----------------------5-5-5-5| 
 
 
Finnaly End on(as it fades out) 
 
repeat 2 times:(let ring) 
E||-----------------------------------------------------|| 
B||-----------------------------------------------------|| 
G||--2--10----------------------------------------------|| 
D||--2--10----------------------------------------------|| 
A||--0--8------------------------------------------------| 
E||------------------------------------------------------| 
 
 
less
plus
Add to Songbook Print Version How to play lesson Submit videolesson
Click the best TAGS for this song:
None of them
Contributor: joebnt20 Correct

If you can not find the chords or tabs you want, look at our partner E-chords. If you are a premium member, you have total access to our video lessons.

If you find a wrong Bad To Me from The Hives, click the correct button above.

login/signup
my songbooks
my recent views
my submits