The Killers

Mr. Brightside chords

The Killers

Album:Direct Hits

Year:2013

tools Ultimate Tabs

Start AutoScroll Font Size Down Font Size Up

Find us on Facebook

chords
tabs bass ukulele keyboards
drums
flute
harmonica
guitar pro video
Ultimate-Tabs

Mr. Brightside

C		   C/B			         Am7 
Coming out of my cage and I've been doing just fine 
		 F		           C 
Gotta gotta be down because I want it all  
                        C/B                          Am7 
It started out with a kiss how did it end up like this? 
		 F                  C 
It was only a kiss it was only a kiss 
		C/B                        Am7 
Now I'm falling asleep and she's calling a cab 
               F                                 C 
While he's having a smoke and she's taking the drag  
                   C/B                        Am 
Now they're going to bed and my stomach is sick 
                   F                             Am 
And it's all in my head but she's touching his chest now  
                  G                F 
He takes off her dress now let me go 
      Am                   G 
And I just can't look it's killing me 
       F 
And taking control  
C 
Jealousy 
F	            Am 
Turning shapes into the sea 
G			C 
Turning through sick lullaby 
F		Am 
Choking on your alibi 
G       	     C 
But it's just the price I pay 
F	   Am 
Destiny is calling me 
G	   C    	 F 
Open up my eager eyes 
Am	    G	    
I'm Mr. Brightside  
C  F  Am  G 
 
C  F  Am  G 
I never		 
 
Tablaturas - Guitarra:  
 
Introdução 
(2x) 
 
E|-------9-----11--9------------9------11--9----} 
B|-----9-----9-------9--------9-------9------9--} 
G|---------10---------------------10------------} 
D|--11--------------------10--------------------} 
A|----------------------------------------------} 
E|----------------------------------------------} 
 
E|-------9-----11--9------------9------11--9----} 
B|-----9-----9-------9--------9-------9------9--} 
G|---------10---------------------10------------} 
D|----------------------------------------------} 
A|--9----------------------9--------------------} 
E|----------------------------------------------} 
 
 
 
(4x) 
 
E|-------9-----11--9------------9------11--9----} 
B|-----9-----9-------9--------9-------9------9--} 
G|---------10---------------------10------------} 
D|--11--------------------10--------------------} 
A|----------------------------------------------} 
E|----------------------------------------------} 
 
E|-------9-----11--9------------9------11--9----} 
B|-----9-----9-------9--------9-------9------9--} 
G|---------10---------------------10------------} 
D|----------------------------------------------} 
A|--9----------------------9--------------------} 
E|----------------------------------------------} 
 
 
 
"Chest now..." 
 
E|-------------------------------------------} 
B|-------------------------------------------} 
G|-------------------------------------------} 
D|--8--8--8--8----6--6--6--6----4--4--4--4---} 
A|--8--8--8--8----6--6--6--6----4--4--4--4---} 
E|--6--6--6--6----4--4--4--4----2--2--2--2---} 
 
 
E|-------------------------------------------} 
B|-------------------------------------------} 
G|-------------------------------------------} 
D|--8--8--8--8----6--6--6--6----4--4--4--4---} 
A|--8--8--8--8----6--6--6--6----4--4--4--4---} 
E|--6--6--6--6----4--4--4--4----2--2--2--2---} 
 
 
"Jealousy..." 
(2x) 
E|-------------------------------------------} 
B|-------------------------------------------} 
G|--10---10---10---10---11---11---11---11----} 
D|----11---11---11---11---11---11---11---11--} 
A|-------------------------------------------} 
E|-------------------------------------------} 
 
E|-------------------------------------------} 
B|-------------------------------------------} 
G|--13---13---13---13------------------------} 
D|----11---11---11-----13---11---10---11-----} 
A|-------------------------------------------} 
E|-------------------------------------------} 
 
(2x) 
E|-------------------------------------------} 
B|--9----9------9------11----11----11--------} 
G|----10---10----10------11----11----11------} 
D|------11---11------------11----11----------} 
A|-------------------------------------------} 
E|-------------------------------------------} 
 
E|-------------------------------------------} 
B|--14----14----14---------------------------} 
G|----13----13----13-------------------------} 
D|------11----11--------13---11---10---11----} 
A|-------------------------------------------} 
E|-------------------------------------------} 
 
 
 
Solo (2x) 
E|-------------------------------------------} 
B|-------------------------------------------} 
G|--10---10---11---13---11---13---11---10----} 
D|----11---11---11---11---11---11---11---11--} 
A|-------------------------------------------} 
E|-------------------------------------------} 
 
E|-------------------------------------------} 
B|-------------------------------------------} 
G|--10---10---11---10------------------------} 
D|----11---11---11-----13---11---10---6------} 
A|-------------------------------------------} 
E|-------------------------------------------} 
 
(3x) - "I never..." 
E|-------------------------------------------} 
B|-------------------------------------------} 
G|--10---10---10---10---11---11---11---11----} 
D|----11---11---11---11---11---11---11---11--} 
A|-------------------------------------------} 
E|-------------------------------------------} 
 
E|-------------------------------------------} 
B|-------------------------------------------} 
G|--13---13---13---13------------------------} 
D|----11---11---11-----13---11---10---11-----} 
A|-------------------------------------------} 
E|-------------------------------------------} 
 
(1x) 
E|-------------------------------------------} 
B|-------------------------------------------} 
G|--10---10---10---10---11---11---11---11----} 
D|----11---11---11---11---11---11---11---11--} 
A|-------------------------------------------} 
E|-------------------------------------------} 
 
E|-------------------------------------------} 
B|-------------------------------------------} 
G|--13---13---13---13------------------------} 
D|----11---11---11-----13---11---10----------} 
A|-------------------------------------------} 
E|-------------------------------------------} 
less
plus
Add to Songbook Print Version How to play lesson Submit videolesson
Click the best TAGS for this song:
None of them
Contributor: snipmark Correct

If you can not find the chords or tabs you want, look at our partner E-chords. If you are a premium member, you have total access to our video lessons.

If you find a wrong Bad To Me from The Killers, click the correct button above.

login/signup
my songbooks
my recent views
my submits