tools Ultimate Tabs

Start AutoScroll Font Size Down Font Size Up

Find us on Facebook

chords
tabs
bass
ukulele keyboards
drums
flute
harmonica
guitar pro
video
Ultimate-Tabs

Drowned In The Sun

****************************************
'Nirvana'
Song: Drowned in the Sun
Album: The Lost Tapes of the 27 Club
Tabbed by Ryan Ashcroft
12/4/21

Standard Tuning
I play it all as barre chords. 


Intro

e|---------------------------------------------------------------------|
B|---------------------------------------------------------------------|
G|------2-----2-----2-----2-------2-----2-----2----2---2----2/4----\2--|
D|----2-----2-----2-----2-------2-----2-----2--------------------------|
A|----------------------------0-----0-----0----0-----------------------|
E|--1-----1-----0-----0-----0------------------------------------------|


Verse 1

(Repeat intro riff over lyrics)

(Riff)
   I've got my hands right now,

   In every wound.

   I've been here before,

   But not with you.
(Riff)
   I still got some pain but

   It's over now.

   The sun shines on you but,

   I don't know how.


Chorus
F       Em              A
I don't care, I feel as one
                 G A C
Drowned in the sun now
F       Em              A     A G A C
I don't care, I feel as one
F       Em              A     
I don't care, I feel as one
A                 
Drowned in the sun now
G
Drowned in the sun
G#
Drowned in the sun
G#
Drowned in the sun
G#
Drowned in the sun

A G A C x2


Verse 2

(Repeat intro riff over lyrics)

e|---------------------------------------------------------------------|
B|---------------------------------------------------------------------|
G|------2-----2-----2-----2-------2-----2-----2----2---2----2/4----\2--|
D|----2-----2-----2-----2-------2-----2-----2--------------------------|
A|----------------------------0-----0-----0----0-----------------------|
E|--1-----1-----0-----0-----0------------------------------------------|


(Riff)
   I know I’m a weirdo and I like it

   So in love but yeah, it’s a secret

   I know it’s wrong, but I needed to

   To get my hands cleaned of what feeds you


Chorus
F       Em              A
I don't care, I feel as one
                 G A C
Drowned in the sun now
F       Em              A
I don't care, I feel as one
F       Em              A
I don't care, I feel as one
                 G A C
Drowned in the sun now
G
Drowned in the sun
G#
Drowned in the sun
G#
Drowned in the sun
               C
Drowned in the


Outro
G#             C
Drowned in the sun
G#             C
Drowned in the sun
G#             C
Drowned in the sun
G#             F 
Drowned in the sun


************************************

| /  Slide up
| \  Slide down

************************************


****************************************

Quote from The Lost Tapes of the 27 Club

As long as there’s been popular music, musicians and crews have struggled with mental health at a
rate far exceeding the general adult population. And this issue hasn’t just been ignored. It’s
been romanticized, by things like the 27 Club—a group of musicians whose lives were all lost at
just 27 years old.

To show the world what’s been lost to this mental health crisis, we’ve used artificial intelligence
to create the album the 27 Club never had the chance to. Through this album, we’re encouraging more
music industry insiders to get the mental health support they need, so they can continue making the
music we all love for years to come.

Because even AI will never replace the real thing.

************************************
less
plus
Add to Songbook Print Version How to play lesson Submit videolesson
Click the best TAGS for this song:
None of them
Contributor: Anonymous Correct

If you can not find the chords or tabs you want, look at our partner E-chords. If you are a premium member, you have total access to our video lessons.

If you find a wrong Bad To Me from The Lost Tapes of the 27 Club, click the correct button above.

login/signup
my songbooks
my recent views
my submits