S The Offspring

L.A.P.D. tab

The Offspring

Album:Ignition

Year:1992

tools Ultimate Tabs

Start AutoScroll Font Size Down Font Size Up

Find us on Facebook

chords
tabs
bass
ukulele
keyboards
drums
flute
harmonica
guitar pro
video
Ultimate-Tabs

L.A.P.D.

                          L.A.P.D. 
 
INTRO 
 
1-Baixo 
2-Baixo+Bateria+ 
       Guitarra (abafado) 
 
E--------------------------------------------------- 
B--------------------------------------------------- 
G--------------------------------------------------- 
D--------------------------------------------------- 
A--------------------9------------------------------ 
E--------------------7------------------------------ 
 
repete no ritmo do baixo 10 vezes, o slide: 
 
E--------------------------------------------------- 
B--------------------------------------------------- 
G--------------------------------------------------- 
D--------------------------------------------------- 
A--------------------------------------------------- 
E----------------19>18>17>16>15>14>13>12>11>10>9>8>7 
 
AÍ ESSE DEDO NA CASA 7 JÁ EMENDA NO POWER CHORD: 
 
RIFF PRINCIPAL: 
 
E--------------------------------------------------- 
B--------------------------------------------------- 
G--------------------------------------------------- 
D-9-9-9--10-10--7-7--------------------------------- 
A-9-9-9--10-10--7-7-------------------REPETE 4 VEZES 
E-7-7-7---8--8--5-5--------------------------------- 
 
DURANTE OS VERSOS, CONTINUA FAZENDO ESSE MESMO RIFF,  
SÓ QUE ABAFADO (8 VEZES). 
 
 
Refrão: 
 
E--------------------------------------------------- 
B--------------------------------------------------- 
G--16>15>14----------------------------------------- 
D--16>15>14-14-14-12-12----------------------------- 
A--14>13>12-14-14-12-12---------------REPETE 3 VEZES 
E-----------12-12-10-10----------------------------- 
 
"Beat all the niggers, beat whoever we see.Don't need  
a reason" 
 
E--------------------------------------------------- 
B--------------------------------------------------- 
G-------7-7-7--------------------------------------- 
D--7-7--7-7-7--9-9-9-------------------------------- 
A--7-7--5-5-5--9-9-9-------------------------------- 
E--5-5---------7-7-7-------------------------------- 
 
              "L.A.P.D." 
 
REPETE O RIFF PRINCIPAL 
 
DURANTE OS VERSOS, CONTINUA FAZENDO ESSE MESMO RIFF,  
SÓ QUE ABAFADO (4 VEZES). 
 
Refrão 
 
REPETE RIFF PRINCIPAL 
 
SOLO: 
 
E-------10-10-9-9-----9-9--------------------------- 
B-12-12-----------9-9-----9-9-11-12-11-12--REPETE 2X 
G--------------------------------------------------- 
D--------------------------------------------------- 
A--------------------------------------------------- 
E--------------------------------------------------- 
 
E-------14-14-12-12-------12-12--------------------- 
B-12-12-------------13-13-------13-13-14-15-14-15--- 
G--------------------------------------------------- 
D--------------------------------------------------- 
A--------------------------------------------------- 
E--------------------------------------------------- 
 
E-------10-10-9-9-----9-9--------------------------- 
B-12-12-----------9-9-----9-9-11-12-11-12----------- 
G--------------------------------------------------- 
D--------------------------------------------------- 
A--------------------------------------------------- 
E--------------------------------------------------- 
 
E--------------------------------------------------- 
B-12-----12-11-12-11-12----------------------------- 
G--------------------------------------------------- 
D--------------------------------------------------- 
A--------------------------------------------------- 
E--------------------------------------------------- 
 
MESMAS NOTAS DO Refrão (SEM VOCAL) 
 
REPETE RIFF PRINCIPAL 
 
DURANTE OS VERSOS, CONTINUA FAZENDO ESSE MESMO RIFF,  
SÓ QUE ABAFADO (8 VEZES). 
 
Refrão 
 
FINAL: 
 
E--------------------------------------------------- 
B--------------------------------------------------- 
G------7-7-7----------------7-7-7------------------- 
D-7-7--7-7-7--9-9-9------7-7--7-7-7--9-9-9---------- 
A-7-7--5-5-5--9-9-9------7-7--5-5-5--9-9-9---------- 
E-5-5---------7-7-7------5-5---------7-7-7---------- 
 
             "L.A.P.D."             "L.A.P.D."  
 
 
less
plus
Add to Songbook Print Version How to play lesson Submit videolesson
Click the best TAGS for this song:
None of them
Contributor: sunnchar Correct

If you can not find the chords or tabs you want, look at our partner E-chords. If you are a premium member, you have total access to our video lessons.

If you find a wrong Bad To Me from The Offspring, click the correct button above.

login/signup
my songbooks
my recent views
my submits