tools Ultimate Tabs

Start AutoScroll Font Size Down Font Size Up

Find us on Facebook

chords
tabs
bass
ukulele keyboards
drums
flute
harmonica
guitar pro
video
Ultimate-Tabs

Roxanne

[email protected] 


VERSO 
      
G:---------------------------------------------------  
D:----55------33------11----------------------------- 
A:----------------------------55------33------------- 
E:--------------------------------------------11--1h3 

VERSO 
      
G:----------------------------------------------------------- 
D:----55------33------11------------------------------------- 
A:----------------------------55------33--------------------- 
E:--------------------------------------------11--1h3-3333333 

REFRAO 
       
G:---------------------------------------------------  
D:--------------------333323332333233---------------- 
A:----011101110111011-------------------------------- 
E:------------------------------------333323332333233 

INTERVALO 
       
G:---------------------------------------------------  
A:--------------------------------------------------- 
E:----0h3-----3h0-----0h3-----3h0-----0h3------------ 

VERSO 
     
G:---------------------------------------------------  
D:----55------33------11----------------------------- 
A:----------------------------55------33------------- 
E:--------------------------------------------11--1h3- 

VERSO 
      
G:----------------------------------------------------------- 
D:----55------33------11------------------------------------- 
A:----------------------------55------33--------------------- 
E:--------------------------------------------11--1h3-3333333 

Refrão 
       
G:---------------------------------------------------  
A:----011101110111011-------------------------------- 
E:------------------------------------333323332333233 
less
plus
Add to Songbook Print Version How to play lesson Submit videolesson
Click the best TAGS for this song:
None of them
Contributor: jeroAryj Correct

If you can not find the chords or tabs you want, look at our partner E-chords. If you are a premium member, you have total access to our video lessons.

If you find a wrong Bad To Me from The Police, click the correct button above.

login/signup
my songbooks
my recent views
my submits