tools Ultimate Tabs

Start AutoScroll Font Size Down Font Size Up

Find us on Facebook

chords
tabs
bass
ukulele keyboards
drums
flute
harmonica
guitar pro
video
Ultimate-Tabs

Face Down

Key:  . - palm mute 
      s - slide 
      b - bend 
    < > - Harmonic 
 
 
Tunning-Drop D 
E 
B 
G 
D 
A 
D 
 
~Intro~ 
 
(Guitar 1) 
E---------------------------------------| 
B---------------------------------------| 
G---------3-----------------------------| 
D-5---1---3---3-------------------------| 
A-5---1---1---3-///////////////////////-| 
D-5---1-------3-////////////-PICK SLIDE-| 
 
(Guitar 2) 
E-------------------| 
B-------------------| 
G-10---10---10---9--| 
D-10---10---10---10-| 
A-8----8----8----7--| 
D-------------------| 
 
~Verse~ 
 
(Guitar 1) 
 
E---------------------------------------------------------------------13-| 
B------------------------------------------------------------------------| 
G-----------------------------------3--3---------------------------------| 
D-5--5-------------1--1-------------3--3-(16 times)--3--3----------------| 
A-5--5-(16 times)--1--1-(16 times)--1--1-------------3--3-(16 times)-----| 
D-5--5-------------1--1------------------------------3--3----------------| 
     .                .                .                . 
 
B-------------------------------------------------------------------| 
G-----------------------------------3-3-s-5-s-7-s-8-s-10------------| 
D-5--5-------------1--1-------------3-x---x---x---x---x--(16 times)-| 
A-5--5-(16 times)--1--1-(16 times)--1-1-s-3-s-5-s-6-s-8-------------| 
D-5--5-------------1--1---------------------------------------------| 
     .                . 
 
(Guitar 2) 
E-----------------------------------------------------------------------| 
B-----------------------------------------------------------------------| 
G-----------------------------------3--3--------------------------------| 
D-5--5-------------1--1-------------3--3-(16 times)--3--3-------------7-| 
A-5--5-(16 times)--1--1-(16 times)--1--1-------------3--3-(16 times)----| 
D-5--5-------------1--1------------------------------3--3---------------| 
     .                .                .                . 
 
E--------------------------------------------------------------------| 
B--------------------------------------------------------------------| 
G-----------------------------------3--3-----------------------------| 
D-5--5-------------1--1-------------3--3-(16 times)--3--3------------| 
A-5--5-(16 times)--1--1-(16 times)--1--1-------------3--3-(16 times)-| 
D-5--5-------------1--1------------------------------3--3------------| 
     .                .                .                . 
 
~Chorus~ 
 
(Guitar 1) 
E----------13-------13-s-15-13-| 
B-11----11----11---------------| 
G----10----------10------------| 
D------------------------------|  (2 Times) 
A------------------------------| 
D------------------------------| 
 
E----------13----------13------| 
B-11----11----11----11---------| 
G----10----------10------------| 
D------------------------------| 
A------------------------------| 
D------------------------------| 
 
(Guitar 2) 
E--------------------------------------------------------------------| 
B--------------------------------------------------------------------| 
G-----------------------------3--------------------------------------| 
D-5-------------1-------------3-(16 times)--3-3--3-3--3-3--3-3--3--3-| 
A-5-(16 times)--1-(16 times)--1-------------3-3--3-3--3-3--3-3--3--3-| 
D-5-------------1---------------------------3-3--3-3--3-3--3-3--3--3-| 
 
E--------------------------------------------------------------------| 
B--------------------------------------------------------------------| 
G-----------------------------3--------------------------------------| 
D-5-------------1-------------3-(16 times)--3-3--3-3--3-3--3-3--3--3-| 
A-5-(16 times)--1-(16 times)--1-------------3-3--3-3--3-3--3-3--3--3-| 
D-5-------------1---------------------------3-3--3-3--3-3--3-3--3--3-| 
 
~Post Chorus~ 
 
(Both Guitars) 
E--------------------| 
B--------------------| 
G--------------------| 
D-5-5--5-5--5-5--5-5-| 
A-5-5--5-5--5-5--5-5-| 
D-5-5--5-5--5-5--5-5-| 
 
~Verse~ 
 
(Guitar 1) 
E--------------------------------------------------------------------| 
B--------------------------------------------------------------------| 
G-----------------------------------3--3-----------------------------| 
D-5--5-------------1--1-------------3--3-(16 times)--3--3------------| 
A-5--5-(16 times)--1--1-(16 times)--1--1-------------3--3-(16 times)-| 
D-5--5-------------1--1------------------------------3--3------------| 
     .                .                .                . 
 
E--------------------------------------------------| 
B--------------------------------------------------| 
G-2--3--2----2--3--2s3s2----3--5--3--10------------| 
D-x--x--x----x--x-----------x--x--x--x--(12 times)-| 
A-0--1--0----0--1-----------1--5--3--8-------------| 
D--------------------------------------------------| 
 
(guitar 2) 
E--------------------------------------------------------------------| 
B--------------------------------------------------------------------| 
G-----------------------------------3--3-----------------------------| 
D-5--5-------------1--1-------------3--3-(16 times)--3--3------------| 
A-5--5-(16 times)--1--1-(16 times)--1--1-------------3--3-(16 times)-| 
D-5--5-------------1--1------------------------------3--3------------| 
     .                .                .                . 
 
E-----------------------------------------------| 
B-----------------------------------------------| 
G-----------------------3--3--3-----------------| 
D-5--5--5----1--1--1----3--3--3----3------------| 
A-5--5--5----1--1--1----1--1--1----3-(12 times)-| 
D-5--5--5----1--1--1---------------3------------| 
 
~Chorus~ 
 
(Guitar 1) 
E----------13-------13-s-15-13-| 
B-11----11----11---------------| 
G----10----------10------------| 
D------------------------------|  (2 Times) 
A------------------------------| 
D------------------------------| 
 
E----------13----------13------| 
B-11----11----11----11---------| 
G----10----------10------------| 
D------------------------------| 
A------------------------------| 
D------------------------------| 
 
(Guitar 2) 
E--------------------------------------------------------------------| 
B--------------------------------------------------------------------| 
G-----------------------------3--------------------------------------| 
D-5-------------1-------------3-(16 times)--3-3--3-3--3-3--3-3--3--3-| 
A-5-(16 times)--1-(16 times)--1-------------3-3--3-3--3-3--3-3--3--3-| 
D-5-------------1---------------------------3-3--3-3--3-3--3-3--3--3-| 
 
E--------------------------------------------------------------------| 
B--------------------------------------------------------------------| 
G-----------------------------3--------------------------------------| 
D-5-------------1-------------3-(16 times)--3-3--3-3--3-3--3-3--3--3-| 
A-5-(16 times)--1-(16 times)--1-------------3-3--3-3--3-3--3-3--3--3-| 
D-5-------------1---------------------------3-3--3-3--3-3--3-3--3--3-| 
 
~Bridge~ 
 
(Guitar 1) 
E-------------------------------------------------------s16b----------| 
B-------------------------------------------------------s16b----------| 
G------------------------------3--------------------------------------| 
D-5------------1---------------3-(5 Times)--3-------------------------| 
A-5-(5 Times)--1-(5 Times)-<3>-1------------3-(5 Times)---------------| 
D-5------------1----------------------------3-------------------------| 
 
E----------------------------------s16b--------------------------| 
B----------------------------------s16b--------------------------| 
G-----------3b----------3b--3------------------------------------| 
D-5------------1------------3-(5 Times)--3-----------3-----------| 
A-5-(5 Times)--1-(5 Times)--1------------3-(5 Times)-3-(8 Times)-| 
D-5------------1-------------------------3-----------3-----------| 
 
(Guitar 2) 
E----------------------------------------------------| 
B----------------------------------------------------| 
G---------------------------3------------------------| 
D-5------------1------------3-(5 Times)--3-----------| 
A-5-(5 Times)--1-(5 Times)--1------------3-(5 Times)-| 
D-5------------1-------------------------3-----------| 
 
E----------------------------------------------------------------| 
B----------------------------------------------------------------| 
G---------------------------3------------------------------------| 
D-5------------1------------3-(5 Times)--3-----------3-----------| 
A-5-(5 Times)--1-(5 Times)--1------------3-(5 Times)-3-(8 Times)-| 
D-5------------1-------------------------3-----------3-----------| 
 
~Chorus~ 
 
(Guitar 1) 
E----------13-------13-s-15-13-| 
B-11----11----11---------------| 
G----10----------10------------| 
D------------------------------|  (2 Times) 
A------------------------------| 
D------------------------------| 
 
E----------13----------13------| 
B-11----11----11----11---------| 
G----10----------10------------| 
D------------------------------| 
A------------------------------| 
D------------------------------| 
 
(Guitar 2) 
E--------------------------------------------------------------------| 
B--------------------------------------------------------------------| 
G-----------------------------3--------------------------------------| 
D-5-------------1-------------3-(16 times)--3-3--3-3--3-3--3-3--3--3-| 
A-5-(16 times)--1-(16 times)--1-------------3-3--3-3--3-3--3-3--3--3-| 
D-5-------------1---------------------------3-3--3-3--3-3--3-3--3--3-| 
 
E--------------------------------------------------------------------| 
B--------------------------------------------------------------------| 
G-----------------------------3--------------------------------------| 
D-5-------------1-------------3-(16 times)--3-3--3-3--3-3--3-3--3--3-| 
A-5-(16 times)--1-(16 times)--1-------------3-3--3-3--3-3--3-3--3--3-| 
D-5-------------1---------------------------3-3--3-3--3-3--3-3--3--3-| 
 
~Outro~ 
 
(Guitar1) 
E---------------------------------------| 
B---------------------------------------| 
G---------------------------------------| 
D---------------------------------------| 
A-666-555-666-555-11-33-55-66--88888888-| 
D---------------------------------------| 
 
E---------------------------------------------------------------| 
B---------------------------------------------------------------| 
G---------------------------------------------------------------| 
D-888-777-888-777-88-1010-1212-1313-1515-1515-1515-1515-1515-15-| 
A---------------------------------------------------------------| 
D---------------------------------------------------------------| 
 
(Guitar 2) 
E--------------------------------------------------------------------| 
B--------------------------------------------------------------------| 
G-----------------------------3--------------------------------------| 
D-5-------------1-------------3-(16 times)--3-3--3-3--3-3--3-3--3--3-| 
A-5-(16 times)--1-(16 times)--1-------------3-3--3-3--3-3--3-3--3--3-| 
D-5-------------1---------------------------3-3--3-3--3-3--3-3--3--3-| 
 
E--------------------------------------------------------------------| 
B--------------------------------------------------------------------| 
G-----------------------------3--------------------------------------| 
D-5-------------1-------------3-(16 times)--3-3--3-3--3-3--3-3--3--3-| 
A-5-(16 times)--1-(16 times)--1-------------3-3--3-3--3-3--3-3--3--3-| 
D-5-------------1---------------------------3-3--3-3--3-3--3-3--3--3-| 
 
(Both Guitars) 
E--------------------| 
B--------------------| 
G--------------------| 
D-5-5--5-5--5-5--5-5-| 
A-5-5--5-5--5-5--5-5-| 
D-5-5--5-5--5-5--5-5-| 
 
less
plus
Add to Songbook Print Version How to play lesson Submit videolesson
Click the best TAGS for this song:
None of them
Contributor: diegjtan Correct

If you can not find the chords or tabs you want, look at our partner E-chords. If you are a premium member, you have total access to our video lessons.

If you find a wrong Bad To Me from The Red Jumpsuit Apparatus, click the correct button above.

login/signup
my songbooks
my recent views
my submits