The Shaggs

Its Halloween tab

The Shaggs

chords
tabs
bass
ukulele
keyboards
drums
flute
harmonica
guitar pro
video
Ultimate-Tabs

Its Halloween

The Shaggs - It's Halloween

Intro
C       G
D       Em
C   D   Em  G

Verse 1
   C                               Em
   It's Halloween, it's Halloween, it's time for scares, it's time for screams
e|-----------------------------------------------------------------------------|
B|-----------3---------------3---------------3---5------------3----5----6------|
G|-5----4--5-------5----4--5-------4----5----------------5---------------------|
D|-----------------------------------------------------------------------------|
A|-----------------------------------------------------------------------------|
E|-----------------------------------------------------------------------------|
      
   C        
   It's Halloween, it's Halloween
e|-3------------------------------------------------|
B|------5--3----------------------------------------|
G|-----------5-----5----4-----5---------------------|
D|--------------------------5-----------------------|
A|-----------------------------------3--2------3----|
E|------------------------------------------3-------|

   D               G                             N.C.               
   The ghosts will spook, the spooks will scare. Why, even Dracula will be there!
e|-----------------------------------------------|
B|-----------------3------3----------------------|
G|-----2------4---------------5------4----2------|
D|-5---------------------------------------------|
A|-----------------------------------------------|
E|-----------------------------------------------|

   Em                                          G            C           G         C
   It's time for games, it's time for fun      not for just one but for ev-  'ry- one
e|---------------------------------------------3-----------------------------3---------|
B|-----------3---5----------------3---5------------5---3-------------------------------|
G|-4----5---------------4----5------------------------------5---4---2-------------5----|
D|----------------------------------------------------------------------5--------------|
A|-------------------------------------------------------------------------------------|
E|-------------------------------------------------------------------------------------|

   G                                       C               D
   The jack-o-lanterns are all lit up      all the dummies are made and stuffed
e|----------------------------------------------------3--------------------------------|
B|---------------------------------------------3---5-------5---3--------3--------------|
G|-5---4----2----4-----5---4---2-----------5------------------------5------------------|
D|-------------5--------------------5--------------------------------------------------|
A|-------------------------------------------------------------------------------------|
E|-------------------------------------------------------------------------------------|

   Em                       G       G                 D
   By just looking you will see,    it's this time of year a- gain
e|-3--------------------------------------------------3--------------------------------|
B|----5----3----------------------------------3----5-------5--3------------------------|
G|------------5----4---2------------4----5---------------------------------------------|
D|--------------------------5----------------------------------------------------------|
A|-------------------------------------------------------------------------------------|
E|-------------------------------------------------------------------------------------|

   D               C               N.C.
   It's Halloween, it's Halloween
e|----------------------------------------------------|
B|-----------3-------------3--------------------------|
G|-5----4--5-------5----4----5------------------------|
D|----------------------------------------------------|
A|---------------------------------3--2----5----3-----|
E|----------------------------------------------------|

     G                C              G                  Em      D       
     All the kids are happy and gay, there doesn't seem to be a cloud in their way
e|-------------------------------------------------3-----------------------------------|
B|----------------------3------------------3---5--------5--3-------------------3-------|
G|-5-4---2--------4---5-----5---4----5------------------------5--4-------2-------------|
D|-----------5---------------------------------------------------------5---------------|
A|-------------------------------------------------------------------------------------|
E|-------------------------------------------------------------------------------------|

   C                D   Em          G                  C                 D             C        G
   But when it's o- ver and they've had all their fun, they'll wish that Halloween had just be- gun
e|-----------------------------------------------------------------------------3----------------3----|
B|-------------------------------------------------------------3---------3--5------5---3-------------|
G|-5---4----2-------2-----------------------2----------5------------5-----------------------5--------|
D|---------------5------2---3-------5---3---------5--------------------------------------------------|
A|---------------------------------------------------------------------------------------------------|
E|---------------------------------------------------------------------------------------------------|

Re-intro
C       G
D       Em
C   D   Em  G

Verse 2
   C             Em                C         D       G                 D
   Oh, there are witches, goblins, vampires, devils, Frankensteins and zombies
e|------------------------------------3------------------------------------------|
B|------------------------3--3-----5---------5--3-------------------------3------|
G|-----------2---5--5--------------------------------5---4---2-----2---4---------|
D|-3---5-------------------------------------------------------------------------|
A|-------------------------------------------------------------------------------|
E|-------------------------------------------------------------------------------|

   D             Em                   G        C          D            
   And there are tramps, Cinderellas, pirates, angels and gyp- sies
e|------------------------------------------------3--------------------|
B|---------------------------------------3-----5------5---3------------|
G|-5---4-----2-----------------2--4---4------------------------5-------|
D|---------------2-------4--5------------------------------------------|
A|---------------------------------------------------------------------|
E|---------------------------------------------------------------------|

   C                             D                 Em            G         D      G     N.C.
   So let's have lots of fun and give many cheers, for Halloween comes but once a year
e|---------------3-----------------------------------------------3-----------------3--------------------|
B|----------5---------5--3-----------------3--------------3--5---------5---3----------------------------|
G|-4--5----------------------5---4-----------------5---4------------------------5-----------------------|
D|------------------------------------5-------------------------------------------------2----------5----|
A|-----------------------------------------------------------------------------------------5----3-------|
E|------------------------------------------------------------------------------------------------------|

   Em                   G                      C       G                     C            N.C.
   It's time for games, it's time for fun      not for just one but for e-  'vry- one
e|---------------------------------------------3-----------------------------3-----------------------------|
B|-----------3---5----------------3---6------------5---3---------------------------------------------------|
G|-4----5---------------4----5------------------------------5---4---2-------------5------------------------|
D|----------------------------------------------------------------------5--------------------------5-------|
A|----------------------------------------------------------------------------------------3-2-0-------3----|
E|----------------------------------------------------------------------------------------------3----------|

Outro
   C
   It's Halloween, it's Halloween, it's Hal- lo- ween
e|-------------------------------------------------------|
B|-----------3-------------3-----------------3-----------|
G|-5----4--5-------5----4----5-----5----4--------5-------|
D|-------------------------------------------------------|
A|-------------------------------------------------------|
E|-------------------------------------------------------|

   C                   N.C.
   It's Hal- lo- ween. It's Halloween!
e|-----------3----------|
B|------3---------------|
G|-5-------------5------|
D|----------------------|
A|----------------------|
E|----------------------|
less
plus
Add to Songbook Print Version How to play lesson Submit videolesson
Click the best TAGS for this song:
None of them
Contributor: Anonymous Correct

If you can not find the chords or tabs you want, look at our partner E-chords. If you are a premium member, you have total access to our video lessons.

If you find a wrong Bad To Me from The Shaggs, click the correct button above.

login/signup
my songbooks
my recent views
my submits