The Strokes

Trying Your Luck drums

The Strokes

Album:Is This It

Year:2001

tools Ultimate Tabs

Start AutoScroll Font Size Down Font Size Up

Find us on Facebook

chords tabs
bass
ukulele keyboards
drums
flute
harmonica
guitar pro
video
Ultimate-Tabs

Trying Your Luck

0:00
I---------------------20X-----------------------I
H-----x-----x-----x-----x-----x-----x-----x-----x
S-----------------0-----------------------0------
b-----0-----0-----------0-----0------------------


0:34

I---------8X----------I
c----x----x----x----x--
s---------0---0----0--0
b----0---------0-------


0:58
I---------------------8X-----------------------I
H-----x-----x-----x-----x-----x-----x-----x----x
S-----------------0-----------------------0-----
b-----0-----0-----------0-----0-----------------


loose hi hat

h---x---x---x---x---x---x---x
s---0---0---0---0---0---0---0
b---0---0---0---0---0---0---0


I-------------5X-------------I
c-x--x--x--x--x--x--x--x--x--x
s-x-----x-----x-----x-----x---
b-x-----x-----x-----x-----x---


1:19
c-x--x--x--x--x--x--x--x
s-x--x--x--x--x--x--x--x
b-x--x--x--x--x--x--x--x


I----------9x-------I
c-x--x--x--x--x--x--x
s-------x-----------x
b-x--x-----x--x------


1:36
t-----x-x-x------
T-------------x-x
s-x-x--g-g-------


I---------------------20X----------------------I
H-----x-----x-----x-----x-----x-----x-----x----x
S-----------------0-----------------------0-----
b-----0-----0-----------0-----0-----------------


I---------7X-----------I
c----x----x----x----x---
s---------0---0----0--00
b----0---------0--------


2:22

I------------8x--------------I	
c-x--x--x--x--x--x--x--x--x--x
s-x--x--x--x--x--x--x--x--x--x
b-x--x--x--x--x--x--x--x--x--x


2:24 (guitar solo)

I---------------------8X-----------------------I
H-----x-----x-----x-----x-----x-----x-----x----x
S-----------------0-----------------------0-----
b-----0-----0-----------0-----0-----------------




I--------------------1x---------------I
c-x--x--x--x--x--x--x--x--x--x--x--x--x
s-x-----x-----x-----x-----x-----x-----x
b-x-----x-----x-----x-----x-----x-----x

2:40

I-----------6x----------I
h---x---x---x---x---x---x
s---0---0---0---0---0---0
b---0---0---0---0---0---0


2:55

I-----------1x---------------I	
c-x--x--x--x--x--x--x--x--x--x
s-x--x--x--x--x--x--x--x--x--x
b-x--x--x--x--x--x--x--x--x--x

2:57

I---------------------8X-----------------------I
H-----x-----x-----x-----x-----x-----x-----x----x
S-----------------0-----------------------0-----
b-----0-----0-----------0-----0-----------------


h---x---x---x---x---x---x---x
s---0---0---0---0---0---0---0
b---0---0---0---0---0---0---0


OUTRO (3:12)

I-----------7x---------------I
C----X---X---X---X---X---X---X
S----0---0---0---0---0---0---0
B----0---0---0---0---0---0---0




Contribuição: Cristina ([email protected]) 
less
plus
Add to Songbook Print Version How to play lesson Submit videolesson
Click the best TAGS for this song:
None of them
Contributor: dan9lock Correct

If you can not find the chords or tabs you want, look at our partner E-chords. If you are a premium member, you have total access to our video lessons.

If you find a wrong Bad To Me from The Strokes, click the correct button above.

login/signup
my songbooks
my recent views
my submits