S Tracy Byrd

Don't Take Her She's All I've Got tab

Tracy Byrd

chords
tabs
bass
ukulele keyboards
drums
flute
harmonica
guitar pro
video
Ultimate-Tabs

Don't Take Her She's All I've Got

Tracy Byrd: Don't Take Her She's All I've Got 
Guitar Solo                                                              
E---|------------------------------------------|------------------------ 
B---|------------------------------------------|------------------------ 
G---|----------3--5^p3h5^--5^--5^p3--5--5^-----|-------5--5p3--5--3----- 
D---|--3--3h5-------------------------------5--|--5p3------------------- 
A---|------------------------------------------|------------------------ 
E---|------------------------------------------|------------------------ 
                                                                         
 
                                                                         
E---------------------|-----------3------------------------------------- 
B---6^--6-------------|--------3-----3--6------------------------------- 
G----------5^p3h5--3--|--3--3--------------5^p3--5^--------------------- 
D---------------------|------------------------------5--3~~~------------ 
A---------------------|------------------------------------------------- 
E---------------------|-------------------------------------------------  
less
plus
Add to Songbook Print Version How to play lesson Submit videolesson
Click the best TAGS for this song:
None of them
Contributor: Faitvara Correct

If you can not find the chords or tabs you want, look at our partner E-chords. If you are a premium member, you have total access to our video lessons.

If you find a wrong Bad To Me from Tracy Byrd, click the correct button above.

login/signup
my songbooks
my recent views
my submits