S Tracy Byrd

Im From The Country tab

Tracy Byrd

chords
tabs
bass
ukulele keyboards
drums
flute
harmonica
guitar pro
video
Ultimate-Tabs

Im From The Country

Intro 
E---|----0--0--0-------------------------------------------------------- 
B---|--1/3--3--3--0----------------------------------------------------- 
G---|----------------2-------------------------------------------------- 
D---|-------------------0--0--2--0--2^--0------------------------------- 
A---|------------------------------------------------------------------- 
E---|------------------------------------------------------------------- 
                                                                         
    "Lead" Lick                                              
      D                                  
E---|------------------------------------------------------------------- 
B---|------------------------------------------------------------------- 
G---|--------------5--4-----------------------------5--4---------------- 
D---|--------4--7--------7--4-----------------4--7--------7--4---------- 
A---|--5--5--------------------5~~~-----5--5--------------------5~~~---- 
E---|------------------------------------------------------------------- 
                                                                         
 
       G                                                                         
E---|------------------------------------------------------------------- 
B---|-----------6--5---------------------------------------------------- 
G---|-----4--7--------7--4-----5/7--7--5\4--------------5--4------------ 
D---|--5--------------------5---------------------4--7--------7--4------ 
A---|---------------------------------------5--5------------------------ 
E---|------------------------------------------------------------------- 
                                                                         
    Listen to the licks when he goes to A - I believe it's just a basic 
    rhythm chord  
less
plus
Add to Songbook Print Version How to play lesson Submit videolesson
Click the best TAGS for this song:
None of them
Contributor: ursiCugw Correct

If you can not find the chords or tabs you want, look at our partner E-chords. If you are a premium member, you have total access to our video lessons.

If you find a wrong Bad To Me from Tracy Byrd, click the correct button above.

login/signup
my songbooks
my recent views
my submits