S Tracy Byrd

You Never Know Just How Good You've Got It tab

Tracy Byrd

chords
tabs
bass
ukulele keyboards
drums
flute
harmonica
guitar pro
video
Ultimate-Tabs

You Never Know Just How Good You've Got It

INTRO 
 
 
E----------------------------------------------------------------------| 
B---------------------------------------5------------------------------| 
G-----------------------------------4-5-6------------------------------| 
D-----------2-4-2-5p4p2-4-2-4-2--4/6--------4-5-4----------------------| 
A------0-2/4-------------4-----4-----------7---7-7-5-5p4-5p4-2-4-------| 
E--0-3b---------------------------------------------7-----------3b-0---| 
 
 
 
RIFF AT 00:15 
 
 
E------------------| 
B--3---------------| 
G--2pbr-0h1--------| 
D----------2-0-2---| 
A-------------2----| 
E------------------| 
 
 
RIFF AT 00:23 
 
E----------------------0-----| 
B--3p0-3p0-3p0-3p0-3p0-3/5---| 
G--2--2---2---2---2----------| 
D----------------------------| 
A----------------------------| 
E----------------------------| 
 
 
RIFF AT 00:31 
 
E--7-----------------| 
B---7pbr-5-----------| 
G---------7bh-7r-6---| 
D--------------------| 
A--------------------| 
E--------------------| 
 
 
RIFF AT 00:39 
 
E-----0--------------------------| 
B-----0--------------------------| 
G--2/4-2p1p0---------------------| 
D-----------2p1p0-----------2----| 
A----------------2-1-0---2-4-----| 
E---------------------3/4----0---| 
 
 
SOLO  01:12 
 
                                 pedal steel type bends 
E--------------------10--------------------------------- 
B--9---9-9-9-9-----------12----------------------------- 
G--7bh-7-7-7-7r--11bh--11--11r-9-11br--9br-7br-6br-4br-- 
D--------------------------------12---11---9---7---5---- 
A--------------------------------------------------0---- 
E------------------------------------------------------- 
 
 
E-----------------------------------------------------------------------9/-- 
B---------------------------------------------------------5-7pbr-5-7-5/6---- 
G--2p1p0------------------------------------------4--4-4/6--------6--------- 
D-------2-0-----------2-5p4p2---2--------2---2-4/6--6----------------------- 
A----------2-1-0---2-4-------4-2------2-4-2h4------------------------------- 
E---------------3/4----------------2/4-------------------------------------- 
 
 
E-----------------------------------11--10---9-7-------------------| 
B-----11p9--11p9--11--11p9--11------12--11--10-8b------------------| 
G-----11p9--11p9--11--11p9--11-------------------9p8p7-------------| 
D--6/8----11----11--11----11---11/13--12--11--9-------9-8-7-5h6----| 
A--------------------------------------------------------------7---| 
E------------------------------------------------------------------| 
 
 
RIFF AT 2:05                2:10 
 
E-----------------------------------------------------| 
B-----------------------------7---7---7---7/9\--5-----| 
G---9bh--9r--7bh-7r--6--------7---7---7---7/9\--5h6---| 
D--12---12---9---9---7--------------------------------| 
A--------------------------7/9-9-9-9-9-9-9------------| 
E-----------------------------------------------------| 
 
 
RIFF AT 2:18 
 
E-----4-0-----------------------| 
B-----5-3-----------------------| 
G--------4-3-2-0----------------| 
D--4/6----------2-0-------------| 
A------------------2-1-0--------| 
E-----------------------3/4-0---| 
 
 
 
OUTRO 
 
E---0-0---------------------------------| 
B----3-0-3--3-2-0-----------------------| 
G----------------3-2-0------------------| 
D--2------------------2-1-0-------------| 
A--------------------------2-1-0--------| 
E-------------------------------3/4-0---|  
less
plus
Add to Songbook Print Version How to play lesson Submit videolesson
Click the best TAGS for this song:
None of them
Contributor: MussKrum Correct

If you can not find the chords or tabs you want, look at our partner E-chords. If you are a premium member, you have total access to our video lessons.

If you find a wrong Bad To Me from Tracy Byrd, click the correct button above.

login/signup
my songbooks
my recent views
my submits