S U2

Acrobat tab

U2

Album:Achtung Baby

Year:1991

tools Ultimate Tabs

Start AutoScroll Font Size Down Font Size Up

Find us on Facebook

chords
tabs
bass ukulele keyboards
drums
flute
harmonica
guitar pro
video
Ultimate-Tabs

Acrobat

Acrobat
Tabbed by: John Couillard
Standard tuning

INTRO: Harmonics (little delay,some dist/compression)
e----------|
b----------|
g-------12-|
d----12----|
a-12-------|
e----------|

VERSE:(little delay,some dist/compression)
(Listen to determine how many strums per chord)
e-x-x--x
b-5/13\5 repeat many times
g-x-x--x
d-x-x--x
a-x-x--x
e-------

PRE-CHORUS:
e-----------------------------------------------|
b-----------------------------------------------|
g-9-7-------------7-9--7------------7-9--7------|
d-----10-9---9-10--------10-9--9-10--------10-9-|
a-----------------------------------------------|
e-----------------------------------------------|

e------------------------------------------------|
b------------------------------------------------|
g-------------------------------9----9----9----9-|
d-10-9-10-7~~-----------------7----7----7----7---|
a-----------10-8-7-7-----------------------------|
e--------------------10-10-----------------------|

CHORUS: 3x I believe
e-------------------------------------------------|
b----13----13----13----13----13----13----15----15-|
g-14----14----14----14----14----14----14----14----|

then VERSE: at end slide to 15th fret

then PRE-CHORUS:at end part play:
g---9--------------------|
d-7--7/999/101010/121212-|

then CHORUS

then SOLO:(alot of distortion added)
e------------------------------------------|
b-22---22---22---22---22---22---22---22----|
g---21---21---21---21---21----21---21---21-|
d------------------------------------------|
a------------------------------------------|
e------------------------------------------|
(listen for how long to strum,,strum fast)
e-x--x--x--x--x--x--x--x--x--x--x--x--x--x--|
b-22-20-19-17-15-13-12-10-13-15-17-15-13-15-|
g-x--x--x--x--x--x--x--x--x--x--x--x--x--x--|
d-x--x--x--x--x--x--x--x--x--x--x--x--x--x--|
a-x--x--x--x--x--x--x--x--x--x--x--x--x--x--|
e-------------------------------------------|
(also keep in mind ur sliding to each note)
e-x--x--x--x--x--x--x--x--x--x--x--x-x--|
b-17-10-13-15-17-10-13-15-12-13-10-6-5--|
g-x--x--x--x--x--x--x--x--x--x--x--x-x--|
d-x--x--x--x--x--x--x--x--x--x--x--x-x--|
a-x--x--x--x--x--x--x--x--x--x--x--x-x--|
e---------------------------------------|
listen for how may 8h10 there are
e---------------------------8--8--8--8--|repeat
b-10-10-8h10-8h10-8h10-8h10-10-10-10-10-|

e--------------| repeat many times
b-7-8-10---7-8-|

[email protected]
less
plus
Add to Songbook Print Version How to play lesson Submit videolesson
Click the best TAGS for this song:
None of them
Contributor: davemyst Correct

If you can not find the chords or tabs you want, look at our partner E-chords. If you are a premium member, you have total access to our video lessons.

If you find a wrong Bad To Me from U2, click the correct button above.

login/signup
my songbooks
my recent views
my submits